  0
SECTION
  2
HEADER
  9
$ACADVER
  1
AC1015
  9
$ACADMAINTVER
 70
     6
  9
$DWGCODEPAGE
  3
ANSI_1252
  9
$INSBASE
 10
0.0
 20
0.0
 30
0.0
  9
$EXTMIN
 10
0.0
 20
0.0
 30
0.0
  9
$EXTMAX
 10
11.0
 20
8.5
 30
0.0
  9
$LIMMIN
 10
0.0
 20
0.0
  9
$LIMMAX
 10
11.0
 20
8.5
  9
$ORTHOMODE
 70
     0
  9
$REGENMODE
 70
     1
  9
$FILLMODE
 70
     1
  9
$QTEXTMODE
 70
     0
  9
$MIRRTEXT
 70
     1
  9
$LTSCALE
 40
1.0
  9
$ATTMODE
 70
     1
  9
$TEXTSIZE
 40
0.125
  9
$TRACEWID
 40
0.05
  9
$TEXTSTYLE
  7
Standard
  9
$CLAYER
  8
0
  9
$CELTYPE
  6
ByLayer
  9
$CECOLOR
 62
   256
  9
$CELTSCALE
 40
1.0
  9
$DISPSILH
 70
     0
  9
$DIMSCALE
 40
1.0
  9
$DIMASZ
 40
0.13
  9
$DIMEXO
 40
0.05
  9
$DIMDLI
 40
0.38
  9
$DIMRND
 40
0.0
  9
$DIMDLE
 40
0.0
  9
$DIMEXE
 40
0.125
  9
$DIMTP
 40
0.0
  9
$DIMTM
 40
0.0
  9
$DIMTXT
 40
0.125
  9
$DIMCEN
 40
0.09
  9
$DIMTSZ
 40
0.0
  9
$DIMTOL
 70
     0
  9
$DIMLIM
 70
     0
  9
$DIMTIH
 70
     1
  9
$DIMTOH
 70
     1
  9
$DIMSE1
 70
     0
  9
$DIMSE2
 70
     0
  9
$DIMTAD
 70
     0
  9
$DIMZIN
 70
     0
  9
$DIMBLK
  1

  9
$DIMASO
 70
     1
  9
$DIMSHO
 70
     1
  9
$DIMPOST
  1

  9
$DIMAPOST
  1

  9
$DIMALT
 70
     0
  9
$DIMALTD
 70
     2
  9
$DIMALTF
 40
25.4
  9
$DIMLFAC
 40
32.0
  9
$DIMTOFL
 70
     0
  9
$DIMTVP
 40
0.0
  9
$DIMTIX
 70
     0
  9
$DIMSOXD
 70
     0
  9
$DIMSAH
 70
     0
  9
$DIMBLK1
  1

  9
$DIMBLK2
  1

  9
$DIMSTYLE
  2
Standard
  9
$DIMCLRD
 70
     0
  9
$DIMCLRE
 70
     0
  9
$DIMCLRT
 70
     0
  9
$DIMTFAC
 40
1.0
  9
$DIMGAP
 40
0.06
  9
$DIMJUST
 70
     0
  9
$DIMSD1
 70
     0
  9
$DIMSD2
 70
     0
  9
$DIMTOLJ
 70
     1
  9
$DIMTZIN
 70
     0
  9
$DIMALTZ
 70
     0
  9
$DIMALTTZ
 70
     0
  9
$DIMUPT
 70
     0
  9
$DIMDEC
 70
     2
  9
$DIMTDEC
 70
     2
  9
$DIMALTU
 70
     2
  9
$DIMALTTD
 70
     2
  9
$DIMTXSTY
  7
Standard
  9
$DIMAUNIT
 70
     0
  9
$DIMADEC
 70
     2
  9
$DIMALTRND
 40
0.0
  9
$DIMAZIN
 70
     0
  9
$DIMDSEP
 70
    46
  9
$DIMATFIT
 70
     3
  9
$DIMFRAC
 70
     0
  9
$DIMLDRBLK
  1

  9
$DIMLUNIT
 70
     2
  9
$DIMLWD
 70
    -2
  9
$DIMLWE
 70
    -2
  9
$DIMTMOVE
 70
     0
  9
$LUNITS
 70
     2
  9
$LUPREC
 70
     2
  9
$SKETCHINC
 40
0.1
  9
$FILLETRAD
 40
0.5
  9
$AUNITS
 70
     0
  9
$AUPREC
 70
     2
  9
$MENU
  1
.
  9
$ELEVATION
 40
0.0
  9
$PELEVATION
 40
0.0
  9
$THICKNESS
 40
0.0
  9
$LIMCHECK
 70
     0
  9
$CHAMFERA
 40
0.5
  9
$CHAMFERB
 40
0.5
  9
$CHAMFERC
 40
1.0
  9
$CHAMFERD
 40
0.0
  9
$SKPOLY
 70
     0
  9
$TDCREATE
 40
2458159.662162836
  9
$TDUCREATE
 40
2458159.995496169
  9
$TDUPDATE
 40
2458159.662164526
  9
$TDUUPDATE
 40
2458159.995497859
  9
$TDINDWG
 40
0.0000000116
  9
$TDUSRTIMER
 40
0.0000000116
  9
$USRTIMER
 70
     1
  9
$ANGBASE
 50
0.0
  9
$ANGDIR
 70
     0
  9
$PDMODE
 70
     0
  9
$PDSIZE
 40
-1.0
  9
$PLINEWID
 40
0.0
  9
$SPLFRAME
 70
     0
  9
$SPLINETYPE
 70
     6
  9
$SPLINESEGS
 70
     8
  9
$HANDSEED
  5
24B
  9
$SURFTAB1
 70
     6
  9
$SURFTAB2
 70
     6
  9
$SURFTYPE
 70
     6
  9
$SURFU
 70
     6
  9
$SURFV
 70
     6
  9
$UCSBASE
  2

  9
$UCSNAME
  2

  9
$UCSORG
 10
0.0
 20
0.0
 30
0.0
  9
$UCSXDIR
 10
1.0
 20
0.0
 30
0.0
  9
$UCSYDIR
 10
0.0
 20
1.0
 30
0.0
  9
$UCSORTHOREF
  2

  9
$UCSORTHOVIEW
 70
     0
  9
$UCSORGTOP
 10
0.0
 20
0.0
 30
0.0
  9
$UCSORGBOTTOM
 10
0.0
 20
0.0
 30
0.0
  9
$UCSORGLEFT
 10
0.0
 20
0.0
 30
0.0
  9
$UCSORGRIGHT
 10
0.0
 20
0.0
 30
0.0
  9
$UCSORGFRONT
 10
0.0
 20
0.0
 30
0.0
  9
$UCSORGBACK
 10
0.0
 20
0.0
 30
0.0
  9
$PUCSBASE
  2

  9
$PUCSNAME
  2

  9
$PUCSORG
 10
0.0
 20
0.0
 30
0.0
  9
$PUCSXDIR
 10
1.0
 20
0.0
 30
0.0
  9
$PUCSYDIR
 10
0.0
 20
1.0
 30
0.0
  9
$PUCSORTHOREF
  2

  9
$PUCSORTHOVIEW
 70
     0
  9
$PUCSORGTOP
 10
0.0
 20
0.0
 30
0.0
  9
$PUCSORGBOTTOM
 10
0.0
 20
0.0
 30
0.0
  9
$PUCSORGLEFT
 10
0.0
 20
0.0
 30
0.0
  9
$PUCSORGRIGHT
 10
0.0
 20
0.0
 30
0.0
  9
$PUCSORGFRONT
 10
0.0
 20
0.0
 30
0.0
  9
$PUCSORGBACK
 10
0.0
 20
0.0
 30
0.0
  9
$USERI1
 70
     0
  9
$USERI2
 70
     0
  9
$USERI3
 70
     0
  9
$USERI4
 70
     0
  9
$USERI5
 70
     0
  9
$USERR1
 40
0.0
  9
$USERR2
 40
0.0
  9
$USERR3
 40
0.0
  9
$USERR4
 40
0.0
  9
$USERR5
 40
0.0
  9
$WORLDVIEW
 70
     1
  9
$SHADEDGE
 70
     3
  9
$SHADEDIF
 70
    70
  9
$TILEMODE
 70
     1
  9
$MAXACTVP
 70
    64
  9
$PINSBASE
 10
0.0
 20
0.0
 30
0.0
  9
$PLIMCHECK
 70
     0
  9
$PEXTMIN
 10
1.0000000000E+20
 20
1.0000000000E+20
 30
1.0000000000E+20
  9
$PEXTMAX
 10
-1.0000000000E+20
 20
-1.0000000000E+20
 30
-1.0000000000E+20
  9
$PLIMMIN
 10
0.0
 20
0.0
  9
$PLIMMAX
 10
12.0
 20
9.0
  9
$UNITMODE
 70
     0
  9
$VISRETAIN
 70
     1
  9
$PLINEGEN
 70
     0
  9
$PSLTSCALE
 70
     1
  9
$TREEDEPTH
 70
  3020
  9
$CMLSTYLE
  2
Standard
  9
$CMLJUST
 70
     0
  9
$CMLSCALE
 40
1.0
  9
$PROXYGRAPHICS
 70
     1
  9
$MEASUREMENT
 70
     0
  9
$CELWEIGHT
370
    -1
  9
$ENDCAPS
280
     0
  9
$JOINSTYLE
280
     0
  9
$LWDISPLAY
290
     1
  9
$INSUNITS
 70
     1
  9
$HYPERLINKBASE
  1

  9
$STYLESHEET
  1

  9
$XEDIT
290
     1
  9
$CEPSNTYPE
380
     0
  9
$PSTYLEMODE
290
     1
  9
$FINGERPRINTGUID
  2
{21E2C533-6DC9-4C66-8593-57E7C8B85295}
  9
$VERSIONGUID
  2
{FAEB1C32-E019-11D5-929B-00C0DF256EC4}
  9
$EXTNAMES
290
     1
  9
$PSVPSCALE
 40
0.0
  9
$OLESTARTUP
290
     0
  0
ENDSEC
  0
SECTION
  2
CLASSES
  0
CLASS
  1
ACDBDICTIONARYWDFLT
  2
AcDbDictionaryWithDefault
  3
ObjectDBX Classes
 90
        0
280
     0
281
     0
  0
CLASS
  1
VISUALSTYLE
  2
AcDbVisualStyle
  3
ObjectDBX Classes
 90
     4095
280
     0
281
     0
  0
CLASS
  1
MATERIAL
  2
AcDbMaterial
  3
ObjectDBX Classes
 90
     1153
280
     0
281
     0
  0
CLASS
  1
ACDBPLACEHOLDER
  2
AcDbPlaceHolder
  3
ObjectDBX Classes
 90
        0
280
     0
281
     0
  0
CLASS
  1
LAYOUT
  2
AcDbLayout
  3
ObjectDBX Classes
 90
        0
280
     0
281
     0
  0
ENDSEC
  0
SECTION
  2
TABLES
  0
TABLE
  2
VPORT
  5
8
330
0
100
AcDbSymbolTable
 70
     1
  0
VPORT
  5
29
330
8
100
AcDbSymbolTableRecord
100
AcDbViewportTableRecord
  2
*Active
 70
     0
 10
0.0
 20
0.0
 11
1.0
 21
1.0
 12
5.5
 22
4.25
 13
0.0
 23
0.0
 14
0.5
 24
0.5
 15
0.5
 25
0.5
 16
0.0
 26
0.0
 36
1.0
 17
0.0
 27
0.0
 37
0.0
 40
8.5
 41
1.2941176471
 42
50.0
 43
0.0
 44
0.0
 50
0.0
 51
0.0
 71
     0
 72
  2000
 73
     1
 74
     3
 75
     0
 76
     0
 77
     0
 78
     0
281
     0
 65
     1
110
0.0
120
0.0
130
0.0
111
1.0
121
0.0
131
0.0
112
0.0
122
1.0
132
0.0
 79
     0
146
0.0
  0
ENDTAB
  0
TABLE
  2
LTYPE
  5
5
330
0
100
AcDbSymbolTable
 70
     6
  0
LTYPE
  5
14
330
5
100
AcDbSymbolTableRecord
100
AcDbLinetypeTableRecord
  2
ByBlock
 70
     0
  3

 72
    65
 73
     0
 40
0.0
  0
LTYPE
  5
15
330
5
100
AcDbSymbolTableRecord
100
AcDbLinetypeTableRecord
  2
ByLayer
 70
     0
  3

 72
    65
 73
     0
 40
0.0
  0
LTYPE
  5
16
330
5
100
AcDbSymbolTableRecord
100
AcDbLinetypeTableRecord
  2
Continuous
 70
     0
  3
Solid line
 72
    65
 73
     0
 40
0.0
  0
LTYPE
  5
3F
330
5
100
AcDbSymbolTableRecord
100
AcDbLinetypeTableRecord
  2
HIDDEN
 70
     0
  3
Hidden __ __ __ __ __ __ __ __ __ __ __ __ __ __
 72
    65
 73
     2
 40
0.075
 49
0.05
 74
     0
 49
-0.025
 74
     0
  0
LTYPE
  5
40
330
5
100
AcDbSymbolTableRecord
100
AcDbLinetypeTableRecord
  2
PHANTOM
 70
     0
  3
Phantom ______  __  __  ______  __  __  ______
 72
    65
 73
     6
 40
0.5
 49
0.25
 74
     0
 49
-0.05
 74
     0
 49
0.05
 74
     0
 49
-0.05
 74
     0
 49
0.05
 74
     0
 49
-0.05
 74
     0
  0
LTYPE
  5
41
330
5
100
AcDbSymbolTableRecord
100
AcDbLinetypeTableRecord
  2
CENTER
 70
     0
  3
Center ____ _ ____ _ ____ _ ____ _ ____ _ ____
 72
    65
 73
     4
 40
0.4
 49
0.25
 74
     0
 49
-0.05
 74
     0
 49
0.05
 74
     0
 49
-0.05
 74
     0
  0
LTYPE
  5
42
330
5
100
AcDbSymbolTableRecord
100
AcDbLinetypeTableRecord
  2
CENTERX2
 70
     0
  3
Center (2x) ________  __  ________  __  _____
 72
    65
 73
     4
 40
0.8
 49
0.5
 74
     0
 49
-0.1
 74
     0
 49
0.1
 74
     0
 49
-0.1
 74
     0
  0
LTYPE
  5
43
330
5
100
AcDbSymbolTableRecord
100
AcDbLinetypeTableRecord
  2
DOT2
 70
     0
  3
Dot (.5x) ........................................
 72
    65
 73
     2
 40
0.025
 49
0.0
 74
     0
 49
-0.025
 74
     0
  0
ENDTAB
  0
TABLE
  2
LAYER
  5
2
330
0
100
AcDbSymbolTable
 70
     1
  0
LAYER
  5
10
330
2
100
AcDbSymbolTableRecord
100
AcDbLayerTableRecord
  2
0
 70
     0
 62
     7
  6
Continuous
370
    -3
390
F
  0
ENDTAB
  0
TABLE
  2
STYLE
  5
3
330
0
100
AcDbSymbolTable
 70
     2
  0
STYLE
  5
11
330
3
100
AcDbSymbolTableRecord
100
AcDbTextStyleTableRecord
  2
Standard
 70
     0
 40
0.0
 41
1.0
 50
0.0
 71
     0
 42
0.125
  3
txt
  4

  0
STYLE
  5
49
330
3
100
AcDbSymbolTableRecord
100
AcDbTextStyleTableRecord
  2
SLDTEXTSTYLE0
 70
     0
 40
0.0
 41
0.605
 50
0.0
 71
     0
 42
0.2
  3
TXT
  4

  0
ENDTAB
  0
TABLE
  2
VIEW
  5
6
330
0
100
AcDbSymbolTable
 70
     0
  0
ENDTAB
  0
TABLE
  2
UCS
  5
7
330
0
100
AcDbSymbolTable
 70
     0
  0
ENDTAB
  0
TABLE
  2
APPID
  5
9
330
0
100
AcDbSymbolTable
 70
     1
  0
APPID
  5
12
330
9
100
AcDbSymbolTableRecord
100
AcDbRegAppTableRecord
  2
ACAD
 70
     0
  0
ENDTAB
  0
TABLE
  2
DIMSTYLE
  5
A
330
0
100
AcDbSymbolTable
 70
     2
100
AcDbDimStyleTable
  0
DIMSTYLE
105
27
330
A
100
AcDbSymbolTableRecord
100
AcDbDimStyleTableRecord
  2
Standard
 70
     0
178
     0
340
11
  0
DIMSTYLE
105
1FD
330
A
100
AcDbSymbolTableRecord
100
AcDbDimStyleTableRecord
  2
SLDDIMSTYLE0
 70
     0
 41
0.13
 44
0.0
 45
0.000000001
140
0.0
146
0.13
147
0.0
173
     1
178
     0
271
     0
272
     0
276
     2
340
11
  0
ENDTAB
  0
TABLE
  2
BLOCK_RECORD
  5
1
330
0
100
AcDbSymbolTable
 70
    12
  0
BLOCK_RECORD
  5
1F
330
1
100
AcDbSymbolTableRecord
100
AcDbBlockTableRecord
  2
*Model_Space
340
22
  0
BLOCK_RECORD
  5
1B
330
1
100
AcDbSymbolTableRecord
100
AcDbBlockTableRecord
  2
*Paper_Space
340
1E
  0
BLOCK_RECORD
  5
23
330
1
100
AcDbSymbolTableRecord
100
AcDbBlockTableRecord
  2
*Paper_Space0
340
26
  0
BLOCK_RECORD
  5
46
330
1
100
AcDbSymbolTableRecord
100
AcDbBlockTableRecord
  2
SW_NOTE_0
340
0
102
{BLKREFS
331
4C
102
}
  0
BLOCK_RECORD
  5
1F3
330
1
100
AcDbSymbolTableRecord
100
AcDbBlockTableRecord
  2
SW_NOTE_1
340
0
102
{BLKREFS
331
1FC
102
}
  0
BLOCK_RECORD
  5
1FF
330
1
100
AcDbSymbolTableRecord
100
AcDbBlockTableRecord
  2
SW_NOTE_2
340
0
102
{BLKREFS
331
204
102
}
  0
BLOCK_RECORD
  5
208
330
1
100
AcDbSymbolTableRecord
100
AcDbBlockTableRecord
  2
SW_NOTE_3
340
0
102
{BLKREFS
331
212
102
}
  0
BLOCK_RECORD
  5
214
330
1
100
AcDbSymbolTableRecord
100
AcDbBlockTableRecord
  2
SW_NOTE_4
340
0
102
{BLKREFS
331
21A
102
}
  0
BLOCK_RECORD
  5
21C
330
1
100
AcDbSymbolTableRecord
100
AcDbBlockTableRecord
  2
SW_NOTE_5
340
0
102
{BLKREFS
331
221
102
}
  0
BLOCK_RECORD
  5
223
330
1
100
AcDbSymbolTableRecord
100
AcDbBlockTableRecord
  2
SW_NOTE_6
340
0
102
{BLKREFS
331
229
102
}
  0
BLOCK_RECORD
  5
22B
330
1
100
AcDbSymbolTableRecord
100
AcDbBlockTableRecord
  2
SW_NOTE_7
340
0
102
{BLKREFS
331
231
102
}
  0
BLOCK_RECORD
  5
233
330
1
100
AcDbSymbolTableRecord
100
AcDbBlockTableRecord
  2
SW_NOTE_8
340
0
102
{BLKREFS
331
239
102
}
  0
BLOCK_RECORD
  5
23B
330
1
100
AcDbSymbolTableRecord
100
AcDbBlockTableRecord
  2
SW_NOTE_9
340
0
102
{BLKREFS
331
241
102
}
  0
BLOCK_RECORD
  5
243
330
1
100
AcDbSymbolTableRecord
100
AcDbBlockTableRecord
  2
SW_NOTE_10
340
0
102
{BLKREFS
331
249
102
}
  0
ENDTAB
  0
ENDSEC
  0
SECTION
  2
BLOCKS
  0
BLOCK
  5
20
330
1F
100
AcDbEntity
  8
0
100
AcDbBlockBegin
  2
*Model_Space
 70
     0
 10
0.0
 20
0.0
 30
0.0
  3
*Model_Space
  1

  0
ENDBLK
  5
21
330
1F
100
AcDbEntity
  8
0
100
AcDbBlockEnd
  0
BLOCK
  5
1C
330
1B
100
AcDbEntity
 67
     1
  8
0
100
AcDbBlockBegin
  2
*Paper_Space
 70
     0
 10
0.0
 20
0.0
 30
0.0
  3
*Paper_Space
  1

  0
ENDBLK
  5
1D
330
1B
100
AcDbEntity
 67
     1
  8
0
100
AcDbBlockEnd
  0
BLOCK
  5
24
330
23
100
AcDbEntity
  8
0
100
AcDbBlockBegin
  2
*Paper_Space0
 70
     0
 10
0.0
 20
0.0
 30
0.0
  3
*Paper_Space0
  1

  0
ENDBLK
  5
25
330
23
100
AcDbEntity
  8
0
100
AcDbBlockEnd
  0
BLOCK
  5
47
330
46
100
AcDbEntity
  8
0
100
AcDbBlockBegin
  2
SW_NOTE_0
 70
     0
 10
0.0
 20
0.0
 30
0.0
  3
SW_NOTE_0
  1

  0
MTEXT
  5
4A
330
46
100
AcDbEntity
  8
0
  6
Continuous
 62
     0
370
     0
100
AcDbMText
 10
2.20703125
 20
0.2685557791
 30
0.0
 40
0.2083333333
 41
0.0
 71
     2
 72
     1
  1
REFRIGERANT PIPING DIAGRAM
  7
SLDTEXTSTYLE0
 73
     1
 44
1.0
  0
MTEXT
  5
4B
330
46
100
AcDbEntity
  8
0
  6
Continuous
 62
     0
370
     0
100
AcDbMText
 10
2.2206558072
 20
-0.2869997697
 30
0.0
 40
0.2083333333
 41
0.0
 71
     2
 72
     1
  1
MECHANICAL SERVICE STATION ROOF ENCLOSURE
  7
SLDTEXTSTYLE0
 73
     1
 44
1.0
  0
ENDBLK
  5
48
330
46
100
AcDbEntity
  8
0
100
AcDbBlockEnd
  0
BLOCK
  5
1F4
330
1F3
100
AcDbEntity
  8
0
100
AcDbBlockBegin
  2
SW_NOTE_1
 70
     0
 10
0.0
 20
0.0
 30
0.0
  3
SW_NOTE_1
  1

  0
MTEXT
  5
1F6
330
1F3
100
AcDbEntity
  8
0
  6
Continuous
 62
     0
370
     0
100
AcDbMText
 10
-1.7288633952
 20
0.6074551996
 30
0.0
 40
0.0833333333
 41
0.0
 71
     1
 72
     1
  1
EXTERIOR WALL OR PARAPET WALL
  7
SLDTEXTSTYLE0
 73
     1
 44
1.0
  0
MTEXT
  5
1F7
330
1F3
100
AcDbEntity
  8
0
  6
Continuous
 62
     0
370
     0
100
AcDbMText
 10
-1.7288633952
 20
0.4963440898
 30
0.0
 40
0.0833333333
 41
0.0
 71
     1
 72
     1
  1
SEAL PENETRATION OUTLET WITH
  7
SLDTEXTSTYLE0
 73
     1
 44
1.0
  0
MTEXT
  5
1F8
330
1F3
100
AcDbEntity
  8
0
  6
Continuous
 62
     0
370
     0
100
AcDbMText
 10
-1.7288633952
 20
0.38523298
 30
0.0
 40
0.0833333333
 41
0.0
 71
     1
 72
     1
  1
ELASTOMERIC LINE-SET
  7
SLDTEXTSTYLE0
 73
     1
 44
1.0
  0
MTEXT
  5
1F9
330
1F3
100
AcDbEntity
  8
0
  6
Continuous
 62
     0
370
     0
100
AcDbMText
 10
-1.7288633952
 20
0.2741218703
 30
0.0
 40
0.0833333333
 41
0.0
 71
     1
 72
     1
  1
COMPRESSION SLEEVE
  7
SLDTEXTSTYLE0
 73
     1
 44
1.0
  0
MTEXT
  5
1FA
330
1F3
100
AcDbEntity
  8
0
  6
Continuous
 62
     0
370
     0
100
AcDbMText
 10
-1.7288633952
 20
0.1630107605
 30
0.0
 40
0.0833333333
 41
0.0
 71
     1
 72
     1
  1
TYPE "AIREX TITAN OUTLET" BY
  7
SLDTEXTSTYLE0
 73
     1
 44
1.0
  0
MTEXT
  5
1FB
330
1F3
100
AcDbEntity
  8
0
  6
Continuous
 62
     0
370
     0
100
AcDbMText
 10
-1.7288633952
 20
0.0518996507
 30
0.0
 40
0.0833333333
 41
0.0
 71
     1
 72
     1
  1
AIREX MANUFACTURING INC.
  7
SLDTEXTSTYLE0
 73
     1
 44
1.0
  0
ENDBLK
  5
1F5
330
1F3
100
AcDbEntity
  8
0
100
AcDbBlockEnd
  0
BLOCK
  5
200
330
1FF
100
AcDbEntity
  8
0
100
AcDbBlockBegin
  2
SW_NOTE_2
 70
     0
 10
0.0
 20
0.0
 30
0.0
  3
SW_NOTE_2
  1

  0
MTEXT
  5
202
330
1FF
100
AcDbEntity
  8
0
  6
Continuous
 62
     0
370
     0
100
AcDbMText
 10
-1.0595278063
 20
0.1564256097
 30
0.0
 40
0.0833333333
 41
0.0
 71
     1
 72
     1
  1
OUTDOOR
  7
SLDTEXTSTYLE0
 73
     1
 44
1.0
  0
MTEXT
  5
203
330
1FF
100
AcDbEntity
  8
0
  6
Continuous
 62
     0
370
     0
100
AcDbMText
 10
-1.0595278063
 20
0.0453144999
 30
0.0
 40
0.0833333333
 41
0.0
 71
     1
 72
     1
  1
CONDENSING UNIT
  7
SLDTEXTSTYLE0
 73
     1
 44
1.0
  0
ENDBLK
  5
201
330
1FF
100
AcDbEntity
  8
0
100
AcDbBlockEnd
  0
BLOCK
  5
209
330
208
100
AcDbEntity
  8
0
100
AcDbBlockBegin
  2
SW_NOTE_3
 70
     0
 10
0.0
 20
0.0
 30
0.0
  3
SW_NOTE_3
  1

  0
LINE
  5
20B
330
208
100
AcDbEntity
  8
0
  6
Continuous
 62
     0
370
     0
100
AcDbLine
 10
-1.0023116377
 20
0.0
 30
0.0
 11
0.0
 21
0.0
 31
0.0
  0
LINE
  5
20C
330
208
100
AcDbEntity
  8
0
  6
Continuous
 62
     0
370
     0
100
AcDbLine
 10
0.0
 20
0.0
 30
0.0
 11
-1.0023116377
 21
0.0
 31
0.0
  0
LINE
  5
20D
330
208
100
AcDbEntity
  8
0
  6
Continuous
 62
     0
370
     0
100
AcDbLine
 10
-1.0023116377
 20
0.0
 30
0.0
 11
0.0
 21
0.0
 31
0.0
  0
LINE
  5
20E
330
208
100
AcDbEntity
  8
0
  6
Continuous
 62
     0
370
     0
100
AcDbLine
 10
0.0
 20
0.0
 30
0.0
 11
-1.0023116377
 21
0.0
 31
0.0
  0
LINE
  5
20F
330
208
100
AcDbEntity
  8
0
  6
Continuous
 62
     0
370
     0
100
AcDbLine
 10
-1.0023116377
 20
0.0
 30
0.0
 11
0.0
 21
0.0
 31
0.0
  0
LINE
  5
210
330
208
100
AcDbEntity
  8
0
  6
Continuous
 62
     0
370
     0
100
AcDbLine
 10
0.0
 20
0.0
 30
0.0
 11
-1.0023116377
 21
0.0
 31
0.0
  0
MTEXT
  5
211
330
208
100
AcDbEntity
  8
0
  6
Continuous
 62
     0
370
     0
100
AcDbMText
 10
-1.0021832485
 20
0.1025876248
 30
0.0
 40
0.0833333333
 41
0.0
 71
     1
 72
     1
  1
ROOF MEMBRANE
  7
SLDTEXTSTYLE0
 73
     1
 44
1.0
  0
ENDBLK
  5
20A
330
208
100
AcDbEntity
  8
0
100
AcDbBlockEnd
  0
BLOCK
  5
215
330
214
100
AcDbEntity
  8
0
100
AcDbBlockBegin
  2
SW_NOTE_4
 70
     0
 10
0.0
 20
0.0
 30
0.0
  3
SW_NOTE_4
  1

  0
MTEXT
  5
217
330
214
100
AcDbEntity
  8
0
  6
Continuous
 62
     0
370
     0
100
AcDbMText
 10
-1.8135027379
 20
0.2683877876
 30
0.0
 40
0.0833333333
 41
0.0
 71
     1
 72
     1
  1
INSULATION PROTECTIVE PVC COVER
  7
SLDTEXTSTYLE0
 73
     1
 44
1.0
  0
MTEXT
  5
218
330
214
100
AcDbEntity
  8
0
  6
Continuous
 62
     0
370
     0
100
AcDbMText
 10
-1.8135027379
 20
0.1572766778
 30
0.0
 40
0.0833333333
 41
0.0
 71
     1
 72
     1
  1
TYPE "AIREX E-FLEX GUARD"
  7
SLDTEXTSTYLE0
 73
     1
 44
1.0
  0
MTEXT
  5
219
330
214
100
AcDbEntity
  8
0
  6
Continuous
 62
     0
370
     0
100
AcDbMText
 10
-1.8135027379
 20
0.046165568
 30
0.0
 40
0.0833333333
 41
0.0
 71
     1
 72
     1
  1
BY AIREX MANUFACTURING INC.
  7
SLDTEXTSTYLE0
 73
     1
 44
1.0
  0
ENDBLK
  5
216
330
214
100
AcDbEntity
  8
0
100
AcDbBlockEnd
  0
BLOCK
  5
21D
330
21C
100
AcDbEntity
  8
0
100
AcDbBlockBegin
  2
SW_NOTE_5
 70
     0
 10
0.0
 20
0.0
 30
0.0
  3
SW_NOTE_5
  1

  0
MTEXT
  5
21F
330
21C
100
AcDbEntity
  8
0
  6
Continuous
 62
     0
370
     0
100
AcDbMText
 10
0.0197395877
 20
0.0411079846
 30
0.0
 40
0.0833333333
 41
0.0
 71
     1
 72
     1
  1
ROOF ENCLOSURE
  7
SLDTEXTSTYLE0
 73
     1
 44
1.0
  0
MTEXT
  5
220
330
21C
100
AcDbEntity
  8
0
  6
Continuous
 62
     0
370
     0
100
AcDbMText
 10
0.0197395877
 20
-0.0700031252
 30
0.0
 40
0.0833333333
 41
0.0
 71
     1
 72
     1
  1
MECHANICAL SERVICE STATION
  7
SLDTEXTSTYLE0
 73
     1
 44
1.0
  0
ENDBLK
  5
21E
330
21C
100
AcDbEntity
  8
0
100
AcDbBlockEnd
  0
BLOCK
  5
224
330
223
100
AcDbEntity
  8
0
100
AcDbBlockBegin
  2
SW_NOTE_6
 70
     0
 10
0.0
 20
0.0
 30
0.0
  3
SW_NOTE_6
  1

  0
MTEXT
  5
226
330
223
100
AcDbEntity
  8
0
  6
Continuous
 62
     0
370
     0
100
AcDbMText
 10
0.0236434605
 20
0.03298409
 30
0.0
 40
0.0833333333
 41
0.0
 71
     1
 72
     1
  1
STAINLESS
  7
SLDTEXTSTYLE0
 73
     1
 44
1.0
  0
MTEXT
  5
227
330
223
100
AcDbEntity
  8
0
  6
Continuous
 62
     0
370
     0
100
AcDbMText
 10
0.0236434605
 20
-0.0781270198
 30
0.0
 40
0.0833333333
 41
0.0
 71
     1
 72
     1
  1
STEEL CLAMP
  7
SLDTEXTSTYLE0
 73
     1
 44
1.0
  0
MTEXT
  5
228
330
223
100
AcDbEntity
  8
0
  6
Continuous
 62
     0
370
     0
100
AcDbMText
 10
0.0236434605
 20
-0.1892381295
 30
0.0
 40
0.0833333333
 41
0.0
 71
     1
 72
     1
  1
PART OF COMPONENT "A"
  7
SLDTEXTSTYLE0
 73
     1
 44
1.0
  0
ENDBLK
  5
225
330
223
100
AcDbEntity
  8
0
100
AcDbBlockEnd
  0
BLOCK
  5
22C
330
22B
100
AcDbEntity
  8
0
100
AcDbBlockBegin
  2
SW_NOTE_7
 70
     0
 10
0.0
 20
0.0
 30
0.0
  3
SW_NOTE_7
  1

  0
MTEXT
  5
22E
330
22B
100
AcDbEntity
  8
0
  6
Continuous
 62
     0
370
     0
100
AcDbMText
 10
-1.4761915948
 20
0.2657890801
 30
0.0
 40
0.0833333333
 41
0.0
 71
     1
 72
     1
  1
UV
  7
SLDTEXTSTYLE0
 73
     1
 44
1.0
  0
MTEXT
  5
22F
330
22B
100
AcDbEntity
  8
0
  6
Continuous
 62
     0
370
     0
100
AcDbMText
 10
-1.4761915948
 20
0.1546779703
 30
0.0
 40
0.0833333333
 41
0.0
 71
     1
 72
     1
  1
CABLE TIES
  7
SLDTEXTSTYLE0
 73
     1
 44
1.0
  0
MTEXT
  5
230
330
22B
100
AcDbEntity
  8
0
  6
Continuous
 62
     0
370
     0
100
AcDbMText
 10
-1.4761915948
 20
0.0435668605
 30
0.0
 40
0.0833333333
 41
0.0
 71
     1
 72
     1
  1
PART OF COMPONENT "B"
  7
SLDTEXTSTYLE0
 73
     1
 44
1.0
  0
ENDBLK
  5
22D
330
22B
100
AcDbEntity
  8
0
100
AcDbBlockEnd
  0
BLOCK
  5
234
330
233
100
AcDbEntity
  8
0
100
AcDbBlockBegin
  2
SW_NOTE_8
 70
     0
 10
0.0
 20
0.0
 30
0.0
  3
SW_NOTE_8
  1

  0
MTEXT
  5
236
330
233
100
AcDbEntity
  8
0
  6
Continuous
 62
     0
370
     0
100
AcDbMText
 10
0.0200964008
 20
0.0408800917
 30
0.0
 40
0.0833333333
 41
0.0
 71
     1
 72
     1
  1
WALL SURFACE
  7
SLDTEXTSTYLE0
 73
     1
 44
1.0
  0
MTEXT
  5
237
330
233
100
AcDbEntity
  8
0
  6
Continuous
 62
     0
370
     0
100
AcDbMText
 10
0.0200964008
 20
-0.0702310181
 30
0.0
 40
0.0833333333
 41
0.0
 71
     1
 72
     1
  1
GASKET SEAL
  7
SLDTEXTSTYLE0
 73
     1
 44
1.0
  0
MTEXT
  5
238
330
233
100
AcDbEntity
  8
0
  6
Continuous
 62
     0
370
     0
100
AcDbMText
 10
0.0200964008
 20
-0.1813421279
 30
0.0
 40
0.0833333333
 41
0.0
 71
     1
 72
     1
  1
PART OF COMPONENT "A"
  7
SLDTEXTSTYLE0
 73
     1
 44
1.0
  0
ENDBLK
  5
235
330
233
100
AcDbEntity
  8
0
100
AcDbBlockEnd
  0
BLOCK
  5
23C
330
23B
100
AcDbEntity
  8
0
100
AcDbBlockBegin
  2
SW_NOTE_9
 70
     0
 10
0.0
 20
0.0
 30
0.0
  3
SW_NOTE_9
  1

  0
MTEXT
  5
23E
330
23B
100
AcDbEntity
  8
0
  6
Continuous
 62
     0
370
     0
100
AcDbMText
 10
-1.4742448562
 20
0.2696469687
 30
0.0
 40
0.0833333333
 41
0.0
 71
     1
 72
     1
  1
ALL MATERIAL
  7
SLDTEXTSTYLE0
 73
     1
 44
1.0
  0
MTEXT
  5
23F
330
23B
100
AcDbEntity
  8
0
  6
Continuous
 62
     0
370
     0
100
AcDbMText
 10
-1.4742448562
 20
0.158535859
 30
0.0
 40
0.0833333333
 41
0.0
 71
     1
 72
     1
  1
WALL ANCHOR SCREWS
  7
SLDTEXTSTYLE0
 73
     1
 44
1.0
  0
MTEXT
  5
240
330
23B
100
AcDbEntity
  8
0
  6
Continuous
 62
     0
370
     0
100
AcDbMText
 10
-1.4742448562
 20
0.0474247492
 30
0.0
 40
0.0833333333
 41
0.0
 71
     1
 72
     1
  1
PART OF COMPONENT "A"
  7
SLDTEXTSTYLE0
 73
     1
 44
1.0
  0
ENDBLK
  5
23D
330
23B
100
AcDbEntity
  8
0
100
AcDbBlockEnd
  0
BLOCK
  5
244
330
243
100
AcDbEntity
  8
0
100
AcDbBlockBegin
  2
SW_NOTE_10
 70
     0
 10
0.0
 20
0.0
 30
0.0
  3
SW_NOTE_10
  1

  0
MTEXT
  5
246
330
243
100
AcDbEntity
  8
0
  6
Continuous
 62
     0
370
     0
100
AcDbMText
 10
0.0197649664
 20
0.038806093
 30
0.0
 40
0.0833333333
 41
0.0
 71
     1
 72
     1
  1
INSULATED
  7
SLDTEXTSTYLE0
 73
     1
 44
1.0
  0
MTEXT
  5
247
330
243
100
AcDbEntity
  8
0
  6
Continuous
 62
     0
370
     0
100
AcDbMText
 10
0.0197649664
 20
-0.0723050168
 30
0.0
 40
0.0833333333
 41
0.0
 71
     1
 72
     1
  1
REFRIGERANT
  7
SLDTEXTSTYLE0
 73
     1
 44
1.0
  0
MTEXT
  5
248
330
243
100
AcDbEntity
  8
0
  6
Continuous
 62
     0
370
     0
100
AcDbMText
 10
0.0197649664
 20
-0.1834161265
 30
0.0
 40
0.0833333333
 41
0.0
 71
     1
 72
     1
  1
PIPING
  7
SLDTEXTSTYLE0
 73
     1
 44
1.0
  0
ENDBLK
  5
245
330
243
100
AcDbEntity
  8
0
100
AcDbBlockEnd
  0
ENDSEC
  0
SECTION
  2
ENTITIES
  0
CIRCLE
  5
44
330
1F
100
AcDbEntity
  8
0
  6
Continuous
 62
     7
370
     0
100
AcDbCircle
 10
1.2753403291
 20
7.4468193758
 30
0.0
 40
0.2028585826798124
  0
CIRCLE
  5
45
330
1F
100
AcDbEntity
  8
0
  6
Continuous
 62
     7
370
     0
100
AcDbCircle
 10
1.9088625495
 20
6.174625906
 30
0.0
 40
0.2028585826798123
  0
INSERT
  5
4C
330
1F
100
AcDbEntity
  8
0
  6
Continuous
 62
     7
370
     0
100
AcDbBlockReference
  2
SW_NOTE_0
 10
3.7314136851
 20
1.1260023543
 30
0.0
  0
MTEXT
  5
4D
330
1F
100
AcDbEntity
  8
0
  6
Continuous
 62
     7
370
     0
100
AcDbMText
 10
1.1848736016
 20
7.5732939997
 30
0.0
 40
0.2083333333
 41
0.0
 71
     1
 72
     1
  1
A
  7
SLDTEXTSTYLE0
 73
     1
 44
1.0
  0
MTEXT
  5
4E
330
1F
100
AcDbEntity
  8
0
  6
Continuous
 62
     7
370
     0
100
AcDbMText
 10
1.8172212479
 20
6.2850433474
 30
0.0
 40
0.2083333333
 41
0.0
 71
     1
 72
     1
  1
B
  7
SLDTEXTSTYLE0
 73
     1
 44
1.0
  0
LINE
  5
4F
330
1F
100
AcDbEntity
  8
0
  6
Continuous
 62
     7
370
    15
100
AcDbLine
 10
7.1263787287
 20
3.8957193514
 30
0.0
 11
7.1223786469
 21
3.8957193514
 31
0.0
  0
LINE
  5
50
330
1F
100
AcDbEntity
  8
0
  6
Continuous
 62
     7
370
    15
100
AcDbLine
 10
7.1223786469
 20
3.8557193549
 30
0.0
 11
7.1263787287
 21
3.8557193549
 31
0.0
  0
LINE
  5
51
330
1F
100
AcDbEntity
  8
0
  6
Continuous
 62
     7
370
    15
100
AcDbLine
 10
6.8743228885
 20
3.9942781542
 30
0.0
 11
6.9224724123
 21
4.0077550812
 31
0.0
  0
LINE
  5
52
330
1F
100
AcDbEntity
  8
0
  6
Continuous
 62
     7
370
    15
100
AcDbLine
 10
6.8507750645
 20
4.2639103247
 30
0.0
 11
6.827620772
 21
4.2574294929
 31
0.0
  0
LINE
  5
53
330
1F
100
AcDbEntity
  8
0
  6
Continuous
 62
     7
370
    15
100
AcDbLine
 10
6.8242582722
 20
4.2564883145
 30
0.0
 11
6.8026255407
 21
4.2504333391
 31
0.0
  0
LINE
  5
54
330
1F
100
AcDbEntity
  8
0
  6
Continuous
 62
     7
370
    15
100
AcDbLine
 10
4.3961989453
 20
3.614657609
 30
0.0
 11
4.6040706133
 21
3.614657609
 31
0.0
  0
LINE
  5
55
330
1F
100
AcDbEntity
  8
0
  6
Continuous
 62
     7
370
    15
100
AcDbLine
 10
4.6040706133
 20
3.6546576055
 30
0.0
 11
4.3961989453
 21
3.6546576055
 31
0.0
  0
LINE
  5
56
330
1F
100
AcDbEntity
  8
0
  6
Continuous
 62
     7
370
    15
100
AcDbLine
 10
4.797398572
 20
3.6546576055
 30
0.0
 11
4.6040706133
 21
3.6546576055
 31
0.0
  0
LINE
  5
57
330
1F
100
AcDbEntity
  8
0
  6
Continuous
 62
     7
370
    15
100
AcDbLine
 10
4.6040706133
 20
3.614657609
 30
0.0
 11
4.797398572
 21
3.614657609
 31
0.0
  0
LINE
  5
58
330
1F
100
AcDbEntity
  8
0
  6
Continuous
 62
     7
370
    15
100
AcDbLine
 10
4.797398572
 20
3.7396576129
 30
0.0
 11
4.6040706133
 21
3.7396576129
 31
0.0
  0
LINE
  5
59
330
1F
100
AcDbEntity
  8
0
  6
Continuous
 62
     7
370
    15
100
AcDbLine
 10
4.6040706133
 20
3.6996576164
 30
0.0
 11
4.797398572
 21
3.6996576164
 31
0.0
  0
LINE
  5
5A
330
1F
100
AcDbEntity
  8
0
  6
Continuous
 62
     7
370
    15
100
AcDbLine
 10
4.5640705581
 20
3.6996576164
 30
0.0
 11
4.6040706133
 21
3.6996576164
 31
0.0
  0
LINE
  5
5B
330
1F
100
AcDbEntity
  8
0
  6
Continuous
 62
     7
370
    15
100
AcDbLine
 10
4.6040706133
 20
3.7396576129
 30
0.0
 11
4.5640705581
 21
3.7396576129
 31
0.0
  0
LINE
  5
5C
330
1F
100
AcDbEntity
  8
0
  6
Continuous
 62
     7
370
    15
100
AcDbLine
 10
4.6085231859
 20
3.4496576084
 30
0.0
 11
4.6085231859
 21
3.614657609
 31
0.0
  0
LINE
  5
5D
330
1F
100
AcDbEntity
  8
0
  6
Continuous
 62
     7
370
    15
100
AcDbLine
 10
4.6085231859
 20
3.6546576055
 30
0.0
 11
4.6085231859
 21
3.6996576164
 31
0.0
  0
LINE
  5
5E
330
1F
100
AcDbEntity
  8
0
  6
Continuous
 62
     7
370
    15
100
AcDbLine
 10
4.6085231859
 20
3.7396576129
 30
0.0
 11
4.6085231859
 21
3.7996576078
 31
0.0
  0
LINE
  5
5F
330
1F
100
AcDbEntity
  8
0
  6
Continuous
 62
     7
370
    15
100
AcDbLine
 10
4.5196179889
 20
3.7996576078
 30
0.0
 11
4.5196179889
 21
3.6546576055
 31
0.0
  0
LINE
  5
60
330
1F
100
AcDbEntity
  8
0
  6
Continuous
 62
     7
370
    15
100
AcDbLine
 10
4.5196179889
 20
3.614657609
 30
0.0
 11
4.5196179889
 21
3.4496576084
 31
0.0
  0
LINE
  5
61
330
1F
100
AcDbEntity
  8
0
  6
Continuous
 62
     7
370
    15
100
AcDbLine
 10
4.4406515145
 20
3.4496576084
 30
0.0
 11
4.4406515145
 21
3.614657609
 31
0.0
  0
LINE
  5
62
330
1F
100
AcDbEntity
  8
0
  6
Continuous
 62
     7
370
    15
100
AcDbLine
 10
4.4406515145
 20
3.6546576055
 30
0.0
 11
4.4406515145
 21
3.6996576164
 31
0.0
  0
LINE
  5
63
330
1F
100
AcDbEntity
  8
0
  6
Continuous
 62
     7
370
    15
100
AcDbLine
 10
4.3517463175
 20
3.6996576164
 30
0.0
 11
4.3517463175
 21
3.4496576084
 31
0.0
  0
LINE
  5
64
330
1F
100
AcDbEntity
  8
0
  6
Continuous
 62
     7
370
    15
100
AcDbLine
 10
4.4314098026
 20
5.3496576221
 30
0.0
 11
4.3263786746
 21
5.4996575213
 31
0.0
  0
LINE
  5
65
330
1F
100
AcDbEntity
  8
0
  6
Continuous
 62
     7
370
    15
100
AcDbLine
 10
3.1263786597
 20
5.4996575213
 30
0.0
 11
3.0213475317
 21
5.3496576221
 31
0.0
  0
LINE
  5
66
330
1F
100
AcDbEntity
  8
0
  6
Continuous
 62
     7
370
    15
100
AcDbLine
 10
4.797398572
 20
3.6546576055
 30
0.0
 11
4.6040706133
 21
3.6546576055
 31
0.0
  0
LINE
  5
67
330
1F
100
AcDbEntity
  8
0
  6
Continuous
 62
     7
370
    15
100
AcDbLine
 10
4.6040706133
 20
3.614657609
 30
0.0
 11
4.797398572
 21
3.614657609
 31
0.0
  0
LINE
  5
68
330
1F
100
AcDbEntity
  8
0
  6
Continuous
 62
     7
370
    15
100
AcDbLine
 10
4.797398572
 20
3.7396576129
 30
0.0
 11
4.6040706133
 21
3.7396576129
 31
0.0
  0
LINE
  5
69
330
1F
100
AcDbEntity
  8
0
  6
Continuous
 62
     7
370
    15
100
AcDbLine
 10
4.6040706133
 20
3.6996576164
 30
0.0
 11
4.797398572
 21
3.6996576164
 31
0.0
  0
LINE
  5
6A
330
1F
100
AcDbEntity
  8
0
  6
Continuous
 62
     7
370
    15
100
AcDbLine
 10
4.6085231859
 20
3.4496576084
 30
0.0
 11
4.6085231859
 21
3.614657609
 31
0.0
  0
LINE
  5
6B
330
1F
100
AcDbEntity
  8
0
  6
Continuous
 62
     7
370
    15
100
AcDbLine
 10
4.6085231859
 20
3.6546576055
 30
0.0
 11
4.6085231859
 21
3.6996576164
 31
0.0
  0
LINE
  5
6C
330
1F
100
AcDbEntity
  8
0
  6
Continuous
 62
     7
370
    15
100
AcDbLine
 10
4.6085231859
 20
3.7396576129
 30
0.0
 11
4.6085231859
 21
3.7996576078
 31
0.0
  0
LINE
  5
6D
330
1F
100
AcDbEntity
  8
0
  6
Continuous
 62
     7
370
    15
100
AcDbLine
 10
4.5196179889
 20
3.7996576078
 30
0.0
 11
4.5196179889
 21
3.6546576055
 31
0.0
  0
LINE
  5
6E
330
1F
100
AcDbEntity
  8
0
  6
Continuous
 62
     7
370
    15
100
AcDbLine
 10
4.5196179889
 20
3.614657609
 30
0.0
 11
4.5196179889
 21
3.4496576084
 31
0.0
  0
LINE
  5
6F
330
1F
100
AcDbEntity
  8
0
  6
Continuous
 62
     7
370
    15
100
AcDbLine
 10
4.4406515145
 20
3.4496576084
 30
0.0
 11
4.4406515145
 21
3.614657609
 31
0.0
  0
LINE
  5
70
330
1F
100
AcDbEntity
  8
0
  6
Continuous
 62
     7
370
    15
100
AcDbLine
 10
4.4406515145
 20
3.6546576055
 30
0.0
 11
4.4406515145
 21
3.6996576164
 31
0.0
  0
LINE
  5
71
330
1F
100
AcDbEntity
  8
0
  6
Continuous
 62
     7
370
    15
100
AcDbLine
 10
4.3517463175
 20
3.6996576164
 30
0.0
 11
4.3517463175
 21
3.4496576084
 31
0.0
  0
LINE
  5
72
330
1F
100
AcDbEntity
  8
0
  6
Continuous
 62
     7
370
    15
100
AcDbLine
 10
4.4314098026
 20
5.3496576221
 30
0.0
 11
4.3263786746
 21
5.4996575213
 31
0.0
  0
LINE
  5
73
330
1F
100
AcDbEntity
  8
0
  6
Continuous
 62
     7
370
    15
100
AcDbLine
 10
3.1263786597
 20
5.4996575213
 30
0.0
 11
3.0213475317
 21
5.3496576221
 31
0.0
  0
LINE
  5
74
330
1F
100
AcDbEntity
  8
0
  6
Continuous
 62
     7
370
    15
100
AcDbLine
 10
6.9229379856
 20
4.2615841596
 30
0.0
 11
6.8566214823
 21
4.2430222994
 31
0.0
  0
LINE
  5
75
330
1F
100
AcDbEntity
  8
0
  6
Continuous
 62
     7
370
    15
100
AcDbLine
 10
6.8084719585
 20
4.2295453724
 30
0.0
 11
5.4422961887
 21
3.8471551471
 31
0.0
  0
LINE
  5
76
330
1F
100
AcDbEntity
  8
0
  6
Continuous
 62
     7
370
    15
100
AcDbLine
 10
6.9717760134
 20
4.0727594023
 30
0.0
 11
6.9754980184
 21
4.0738011929
 31
0.0
  0
ARC
  5
77
330
1F
100
AcDbEntity
  8
0
  6
Continuous
 62
     7
370
    15
100
AcDbCircle
 10
4.9294981364
 20
5.67924261
 30
0.0
 40
1.902499999999996
100
AcDbArc
 50
270.0
 51
285.6368383991
  0
LINE
  5
78
330
1F
100
AcDbEntity
  8
0
  6
Continuous
 62
     7
370
    15
100
AcDbLine
 10
4.9294981873
 20
3.7767426139
 30
0.0
 11
4.7596876049
 21
3.7767426139
 31
0.0
  0
LINE
  5
79
330
1F
100
AcDbEntity
  8
0
  6
Continuous
 62
     7
370
    15
100
AcDbLine
 10
5.4948562215
 20
3.6450322621
 30
0.0
 11
6.864754231
 21
4.0284642926
 31
0.0
  0
LINE
  5
7A
330
1F
100
AcDbEntity
  8
0
  6
Continuous
 62
     7
370
    15
100
AcDbLine
 10
6.8750681812
 20
4.0313511286
 30
0.0
 11
6.9025243334
 21
4.0390360798
 31
0.0
  0
LINE
  5
7B
330
1F
100
AcDbEntity
  8
0
  6
Continuous
 62
     7
370
    15
100
AcDbLine
 10
6.9129037548
 20
4.0419412196
 30
0.0
 11
6.9754980184
 21
4.0594612892
 31
0.0
  0
ARC
  5
7C
330
1F
100
AcDbEntity
  8
0
  6
Continuous
 62
     7
370
    15
100
AcDbCircle
 10
4.9294981364
 20
5.6649026699
 30
0.0
 40
2.097499999999996
100
AcDbArc
 50
270.0
 51
285.6368383991
  0
LINE
  5
7D
330
1F
100
AcDbEntity
  8
0
  6
Continuous
 62
     7
370
    15
100
AcDbLine
 10
4.7596876049
 20
3.5674026682
 30
0.0
 11
4.9294981873
 21
3.5674026682
 31
0.0
  0
ARC
  5
7E
330
1F
100
AcDbEntity
  8
0
  6
Continuous
 62
     7
370
    15
100
AcDbCircle
 10
7.0942144815
 20
4.0070805455
 30
0.0
 40
0.0062500000000004
100
AcDbArc
 50
240.6368383991
 51
285.6368383991
  0
ARC
  5
7F
330
1F
100
AcDbEntity
  8
0
  6
Continuous
 62
     7
370
    15
100
AcDbCircle
 10
6.9897681067
 20
4.3802389633
 30
0.0
 40
0.0062500000000004
100
AcDbArc
 50
105.6368383991
 51
150.6368383991
  0
LINE
  5
80
330
1F
100
AcDbEntity
  8
0
  6
Continuous
 62
     7
370
    15
100
AcDbLine
 10
7.0958991662
 20
4.0010618785
 30
0.0
 11
7.0994247574
 21
4.0020486991
 31
0.0
  0
LINE
  5
81
330
1F
100
AcDbEntity
  8
0
  6
Continuous
 62
     7
370
    15
100
AcDbLine
 10
6.9916091069
 20
4.3872444786
 30
0.0
 11
6.9880835157
 21
4.386257658
 31
0.0
  0
LINE
  5
82
330
1F
100
AcDbEntity
  8
0
  6
Continuous
 62
     7
370
    15
100
AcDbLine
 10
6.9843211485
 20
4.3833035908
 30
0.0
 11
6.9797520066
 21
4.3751826926
 31
0.0
  0
LINE
  5
83
330
1F
100
AcDbEntity
  8
0
  6
Continuous
 62
     7
370
    15
100
AcDbLine
 10
7.0830290215
 20
4.0062025445
 30
0.0
 11
7.0911498024
 21
4.0016334612
 31
0.0
  0
ARC
  5
84
330
1F
100
AcDbEntity
  8
0
  6
Continuous
 62
     7
370
    15
100
AcDbCircle
 10
7.0860935549
 20
4.0116495758
 30
0.0
 40
0.0062499999999999
100
AcDbArc
 50
195.6368383991
 51
240.6368383991
  0
ARC
  5
85
330
1F
100
AcDbEntity
  8
0
  6
Continuous
 62
     7
370
    15
100
AcDbCircle
 10
6.9851990764
 20
4.3721180367
 30
0.0
 40
0.0062500000000007
100
AcDbArc
 50
150.6368383991
 51
195.6368383991
  0
ARC
  5
86
330
1F
100
AcDbEntity
  8
0
  6
Continuous
 62
     7
370
    15
100
AcDbCircle
 10
7.0574025832
 20
4.0445913855
 30
0.0
 40
0.0125000000000023
100
AcDbArc
 50
15.6368383991
 51
60.6368383991
  0
ARC
  5
87
330
1F
100
AcDbEntity
  8
0
  6
Continuous
 62
     7
370
    15
100
AcDbCircle
 10
6.9777779431
 20
4.3290685133
 30
0.0
 40
0.0125000000000028
100
AcDbArc
 50
330.6368383991
 51
15.6368383991
  0
LINE
  5
88
330
1F
100
AcDbEntity
  8
0
  6
Continuous
 62
     7
370
    15
100
AcDbLine
 10
6.9886720529
 20
4.3229392215
 30
0.0
 11
6.9619435936
 21
4.2754325596
 31
0.0
  0
LINE
  5
89
330
1F
100
AcDbEntity
  8
0
  6
Continuous
 62
     7
370
    15
100
AcDbLine
 10
7.0160251875
 20
4.0822138957
 30
0.0
 11
7.0635319667
 21
4.0554854951
 31
0.0
  0
ARC
  5
8A
330
1F
100
AcDbEntity
  8
0
  6
Continuous
 62
     7
370
    15
100
AcDbCircle
 10
7.0037666524
 20
4.0604256563
 30
0.0
 40
0.025000000000002
100
AcDbArc
 50
60.6368383991
 51
105.6368383991
  0
ARC
  5
8B
330
1F
100
AcDbEntity
  8
0
  6
Continuous
 62
     7
370
    15
100
AcDbCircle
 10
6.9401554409
 20
4.2876911701
 30
0.0
 40
0.0250000000000041
100
AcDbArc
 50
285.6368383991
 51
330.6368383991
  0
LINE
  5
8C
330
1F
100
AcDbEntity
  8
0
  6
Continuous
 62
     7
370
    15
100
AcDbLine
 10
6.9742850404
 20
4.0781346735
 30
0.0
 11
6.9970282017
 21
4.0845004026
 31
0.0
  0
LINE
  5
8D
330
1F
100
AcDbEntity
  8
0
  6
Continuous
 62
     7
370
    15
100
AcDbLine
 10
6.9468938901
 20
4.2636164081
 30
0.0
 11
6.9241509635
 21
4.257250679
 31
0.0
  0
SPLINE
  5
8E
330
1F
100
AcDbEntity
  8
0
  6
Continuous
 62
     7
370
    15
100
AcDbSpline
210
0.0
220
0.0
230
1.0
 70
     8
 71
     3
 72
    16
 73
    12
 74
     0
 42
0.00000001
 43
0.00000001
 12
1.0
 22
0.0
 32
0.0
 13
1.0
 23
0.0
 33
0.0
 40
0.0
 40
0.0
 40
0.0
 40
0.0
 40
0.0377250194600115
 40
0.1324322047810547
 40
0.2111327026356136
 40
0.2797597125287944
 40
0.3403216695719375
 40
0.4045806586907429
 40
0.499968889921982
 40
0.6961980500154348
 40
1.0
 40
1.0
 40
1.0
 40
1.0
 10
6.845382486817048
 20
4.278407511929464
 30
0.0
 10
6.845301141867012
 20
4.278377592114789
 30
0.0
 10
6.845015583602627
 20
4.27827255977602
 30
0.0
 10
6.844518525454212
 20
4.278328722654508
 30
0.0
 10
6.844012713339406
 20
4.278501658873324
 30
0.0
 10
6.843660509595102
 20
4.278738828206782
 30
0.0
 10
6.843442703667651
 20
4.27895038892101
 30
0.0
 10
6.843304642270109
 20
4.279123609787534
 30
0.0
 10
6.843202231530002
 20
4.279282502164243
 30
0.0
 10
6.843148687113597
 20
4.279389014390003
 30
0.0
 10
6.84315235732474
 20
4.279381958380761
 30
0.0
 10
6.843154587220601
 20
4.279377671388765
 30
0.0
  0
SPLINE
  5
8F
330
1F
100
AcDbEntity
  8
0
  6
Continuous
 62
     7
370
    15
100
AcDbSpline
210
0.0
220
0.0
230
1.0
 70
     8
 71
     3
 72
    15
 73
    11
 74
     0
 42
0.00000001
 43
0.00000001
 12
1.0
 22
0.0
 32
0.0
 13
1.0
 23
0.0
 33
0.0
 40
0.0
 40
0.0
 40
0.0
 40
0.0
 40
0.2034217039550483
 40
0.4816005685467051
 40
0.6175161380414115
 40
0.6964041495325657
 40
0.7824077249874701
 40
0.8864441435014951
 40
0.9998511155884031
 40
1.0
 40
1.0
 40
1.0
 40
1.0
 10
6.799587346513083
 20
4.267185764230717
 30
0.0
 10
6.799587268259073
 20
4.267185824848378
 30
0.0
 10
6.799587082992824
 20
4.267185968360595
 30
0.0
 10
6.799596965164182
 20
4.2670920877535
 30
0.0
 10
6.799590188508816
 20
4.266802860884835
 30
0.0
 10
6.79950087879198
 20
4.266403151887097
 30
0.0
 10
6.799286384079122
 20
4.265935850960334
 30
0.0
 10
6.798858172590511
 20
4.265486079689921
 30
0.0
 10
6.79846080473221
 20
4.265205744385859
 30
0.0
 10
6.798222149857429
 20
4.265175965159098
 30
0.0
 10
6.798221836954233
 20
4.265175926115205
 30
0.0
  0
ARC
  5
90
330
1F
100
AcDbEntity
  8
0
  6
Continuous
 62
     7
370
    15
100
AcDbCircle
 10
6.800010709
 20
4.2590354505
 30
0.0
 40
0.0063976377952774
100
AcDbArc
 50
106.2129538335
 51
195.6368383991
  0
ARC
  5
91
330
1F
100
AcDbEntity
  8
0
  6
Continuous
 62
     7
370
    15
100
AcDbCircle
 10
6.8470227931
 20
4.2721940489
 30
0.0
 40
0.006397637795276
100
AcDbArc
 50
15.6368383991
 51
104.355256218
  0
ARC
  5
92
330
1F
100
AcDbEntity
  8
0
  6
Continuous
 62
     7
370
    15
100
AcDbCircle
 10
6.8021330636
 20
4.2514528563
 30
0.0
 40
0.0041141732283469
100
AcDbArc
 50
195.6368383991
 51
285.6368383991
  0
ARC
  5
93
330
1F
100
AcDbEntity
  8
0
  6
Continuous
 62
     7
370
    15
100
AcDbCircle
 10
6.8491451477
 20
4.2646114547
 30
0.0
 40
0.0041141732283486
100
AcDbArc
 50
305.2433521698
 51
15.6368383991
  0
LINE
  5
94
330
1F
100
AcDbEntity
  8
0
  6
Continuous
 62
     7
370
    15
100
AcDbLine
 10
6.8034339581
 20
4.2475446845
 30
0.0
 11
6.803242003
 21
4.2474909464
 31
0.0
  0
LINE
  5
95
330
1F
100
AcDbEntity
  8
0
  6
Continuous
 62
     7
370
    15
100
AcDbLine
 10
7.1263787287
 20
4.6294693658
 30
0.0
 11
7.1228787158
 21
4.6294693658
 31
0.0
  0
LINE
  5
96
330
1F
100
AcDbEntity
  8
0
  6
Continuous
 62
     7
370
    15
100
AcDbLine
 10
7.1228787158
 20
4.5894693692
 30
0.0
 11
7.1263787287
 21
4.5894693692
 31
0.0
  0
LINE
  5
97
330
1F
100
AcDbEntity
  8
0
  6
Continuous
 62
     7
370
    15
100
AcDbLine
 10
7.1223786469
 20
3.8757193532
 30
0.0
 11
7.1223786469
 21
3.8957193514
 31
0.0
  0
LINE
  5
98
330
1F
100
AcDbEntity
  8
0
  6
Continuous
 62
     7
370
    15
100
AcDbLine
 10
7.1223786469
 20
3.8557193549
 30
0.0
 11
7.1223786469
 21
3.8757193532
 31
0.0
  0
LINE
  5
99
330
1F
100
AcDbEntity
  8
0
  6
Continuous
 62
     7
370
    15
100
AcDbLine
 10
7.114378718
 20
3.8757193532
 30
0.0
 11
7.1223786469
 21
3.8757193532
 31
0.0
  0
LINE
  5
9A
330
1F
100
AcDbEntity
  8
0
  6
Continuous
 62
     7
370
    15
100
AcDbLine
 10
7.1098785673
 20
3.8598443659
 30
0.0
 11
7.1223786469
 21
3.8598443659
 31
0.0
  0
LINE
  5
9B
330
1F
100
AcDbEntity
  8
0
  6
Continuous
 62
     7
370
    15
100
AcDbLine
 10
7.1098785673
 20
3.8598443659
 30
0.0
 11
7.1098785673
 21
3.8729693556
 31
0.0
  0
LINE
  5
9C
330
1F
100
AcDbEntity
  8
0
  6
Continuous
 62
     7
370
    15
100
AcDbLine
 10
7.114378718
 20
3.8729693556
 30
0.0
 11
7.1098785673
 21
3.8729693556
 31
0.0
  0
LINE
  5
9D
330
1F
100
AcDbEntity
  8
0
  6
Continuous
 62
     7
370
    15
100
AcDbLine
 10
7.114378718
 20
3.8729693556
 30
0.0
 11
7.114378718
 21
3.8757193532
 31
0.0
  0
LINE
  5
9E
330
1F
100
AcDbEntity
  8
0
  6
Continuous
 62
     7
370
    15
100
AcDbLine
 10
7.1098785673
 20
3.8915943404
 30
0.0
 11
7.1223786469
 21
3.8915943404
 31
0.0
  0
LINE
  5
9F
330
1F
100
AcDbEntity
  8
0
  6
Continuous
 62
     7
370
    15
100
AcDbLine
 10
7.1098785673
 20
3.8784693507
 30
0.0
 11
7.114378718
 21
3.8784693507
 31
0.0
  0
LINE
  5
A0
330
1F
100
AcDbEntity
  8
0
  6
Continuous
 62
     7
370
    15
100
AcDbLine
 10
7.1098785673
 20
3.8784693507
 30
0.0
 11
7.1098785673
 21
3.8915943404
 31
0.0
  0
LINE
  5
A1
330
1F
100
AcDbEntity
  8
0
  6
Continuous
 62
     7
370
    15
100
AcDbLine
 10
7.114378718
 20
3.8757193532
 30
0.0
 11
7.114378718
 21
3.8784693507
 31
0.0
  0
LINE
  5
A2
330
1F
100
AcDbEntity
  8
0
  6
Continuous
 62
     7
370
    15
100
AcDbLine
 10
7.120378606
 20
4.6253443254
 30
0.0
 11
7.1263787287
 21
4.6253443254
 31
0.0
  0
LINE
  5
A3
330
1F
100
AcDbEntity
  8
0
  6
Continuous
 62
     7
370
    15
100
AcDbLine
 10
7.1248787567
 20
4.6094693088
 30
0.0
 11
7.1263787287
 21
4.6094693088
 31
0.0
  0
LINE
  5
A4
330
1F
100
AcDbEntity
  8
0
  6
Continuous
 62
     7
370
    15
100
AcDbLine
 10
7.1248787567
 20
4.6094693088
 30
0.0
 11
7.1248787567
 21
4.6122193357
 31
0.0
  0
LINE
  5
A5
330
1F
100
AcDbEntity
  8
0
  6
Continuous
 62
     7
370
    15
100
AcDbLine
 10
7.120378606
 20
4.6122193357
 30
0.0
 11
7.1248787567
 21
4.6122193357
 31
0.0
  0
LINE
  5
A6
330
1F
100
AcDbEntity
  8
0
  6
Continuous
 62
     7
370
    15
100
AcDbLine
 10
7.120378606
 20
4.6122193357
 30
0.0
 11
7.120378606
 21
4.6253443254
 31
0.0
  0
LINE
  5
A7
330
1F
100
AcDbEntity
  8
0
  6
Continuous
 62
     7
370
    15
100
AcDbLine
 10
7.120378606
 20
4.5935944095
 30
0.0
 11
7.1263787287
 21
4.5935944095
 31
0.0
  0
LINE
  5
A8
330
1F
100
AcDbEntity
  8
0
  6
Continuous
 62
     7
370
    15
100
AcDbLine
 10
7.120378606
 20
4.5935944095
 30
0.0
 11
7.120378606
 21
4.6067193992
 31
0.0
  0
LINE
  5
A9
330
1F
100
AcDbEntity
  8
0
  6
Continuous
 62
     7
370
    15
100
AcDbLine
 10
7.1248787567
 20
4.6067193992
 30
0.0
 11
7.120378606
 21
4.6067193992
 31
0.0
  0
LINE
  5
AA
330
1F
100
AcDbEntity
  8
0
  6
Continuous
 62
     7
370
    15
100
AcDbLine
 10
7.1248787567
 20
4.6067193992
 30
0.0
 11
7.1248787567
 21
4.6094693088
 31
0.0
  0
LINE
  5
AB
330
1F
100
AcDbEntity
  8
0
  6
Continuous
 62
     7
370
    15
100
AcDbLine
 10
7.2469286535
 20
4.7344427664
 30
0.0
 11
7.2281787687
 21
4.7344427664
 31
0.0
  0
LINE
  5
AC
330
1F
100
AcDbEntity
  8
0
  6
Continuous
 62
     7
370
    15
100
AcDbLine
 10
7.2469286535
 20
4.7144428268
 30
0.0
 11
7.2469286535
 21
4.7344427664
 31
0.0
  0
LINE
  5
AD
330
1F
100
AcDbEntity
  8
0
  6
Continuous
 62
     7
370
    15
100
AcDbLine
 10
7.2469286535
 20
4.7144428268
 30
0.0
 11
7.2281787687
 21
4.7144428268
 31
0.0
  0
LINE
  5
AE
330
1F
100
AcDbEntity
  8
0
  6
Continuous
 62
     7
370
    15
100
AcDbLine
 10
7.2469286535
 20
3.7694427755
 30
0.0
 11
7.2281787687
 21
3.7694427755
 31
0.0
  0
LINE
  5
AF
330
1F
100
AcDbEntity
  8
0
  6
Continuous
 62
     7
370
    15
100
AcDbLine
 10
7.2469286535
 20
3.7494427772
 30
0.0
 11
7.2469286535
 21
3.7694427755
 31
0.0
  0
LINE
  5
B0
330
1F
100
AcDbEntity
  8
0
  6
Continuous
 62
     7
370
    15
100
AcDbLine
 10
7.2469286535
 20
3.7494427772
 30
0.0
 11
7.2281787687
 21
3.7494427772
 31
0.0
  0
LINE
  5
B1
330
1F
100
AcDbEntity
  8
0
  6
Continuous
 62
     7
370
    15
100
AcDbLine
 10
7.2469286535
 20
3.7694427755
 30
0.0
 11
7.2469286535
 21
4.7144428268
 31
0.0
  0
LINE
  5
B2
330
1F
100
AcDbEntity
  8
0
  6
Continuous
 62
     7
370
    15
100
AcDbLine
 10
7.6469286193
 20
4.1052314965
 30
0.0
 11
7.2469286535
 21
4.1052314965
 31
0.0
  0
LINE
  5
B3
330
1F
100
AcDbEntity
  8
0
  6
Continuous
 62
     7
370
    15
100
AcDbLine
 10
7.2469286535
 20
4.2902287674
 30
0.0
 11
7.6469286193
 21
4.2902287674
 31
0.0
  0
LINE
  5
B4
330
1F
100
AcDbEntity
  8
0
  6
Continuous
 62
     7
370
    15
100
AcDbLine
 10
7.8544302222
 20
2.5977301219
 30
0.0
 11
8.0394270824
 21
2.5977301219
 31
0.0
  0
ARC
  5
B5
330
1F
100
AcDbEntity
  8
0
  6
Continuous
 62
     7
370
    15
100
AcDbCircle
 10
7.6469286671
 20
3.8977301251
 30
0.0
 40
0.2075013513612234
100
AcDbArc
 50
0.0
 51
90.0
  0
ARC
  5
B6
330
1F
100
AcDbEntity
  8
0
  6
Continuous
 62
     7
370
    15
100
AcDbCircle
 10
7.6469286671
 20
3.8977301251
 30
0.0
 40
0.3924986486387771
100
AcDbArc
 50
0.0
 51
90.0
  0
LINE
  5
B7
330
1F
100
AcDbEntity
  8
0
  6
Continuous
 62
     7
370
    15
100
AcDbLine
 10
8.0394270824
 20
2.5977301219
 30
0.0
 11
8.0394270824
 21
3.8977301282
 31
0.0
  0
LINE
  5
B8
330
1F
100
AcDbEntity
  8
0
  6
Continuous
 62
     7
370
    15
100
AcDbLine
 10
7.8544302222
 20
3.8977301282
 30
0.0
 11
7.8544302222
 21
2.5977301219
 31
0.0
  0
LINE
  5
B9
330
1F
100
AcDbEntity
  8
0
  6
Continuous
 62
     7
370
    15
100
AcDbLine
 10
9.3869285293
 20
3.1496576047
 30
0.0
 11
10.7869285271
 21
3.1496576047
 31
0.0
  0
LINE
  5
BA
330
1F
100
AcDbEntity
  8
0
  6
Continuous
 62
     7
370
    15
100
AcDbLine
 10
10.7869285271
 20
3.1496576047
 30
0.0
 11
10.7869285271
 21
2.8296576027
 31
0.0
  0
LINE
  5
BB
330
1F
100
AcDbEntity
  8
0
  6
Continuous
 62
     7
370
    15
100
AcDbLine
 10
9.3869285293
 20
2.8296576027
 30
0.0
 11
9.3869285293
 21
3.1496576047
 31
0.0
  0
LINE
  5
BC
330
1F
100
AcDbEntity
  8
0
  6
Continuous
 62
     7
370
    15
100
AcDbLine
 10
9.3869285293
 20
2.8296576027
 30
0.0
 11
10.7869285271
 21
2.8296576027
 31
0.0
  0
LINE
  5
BD
330
1F
100
AcDbEntity
  8
0
  6
Continuous
 62
     7
370
    15
100
AcDbLine
 10
2.1449286375
 20
3.1496576047
 30
0.0
 11
2.1449286375
 21
2.8296576027
 31
0.0
  0
LINE
  5
BE
330
1F
100
AcDbEntity
  8
0
  6
Continuous
 62
     7
370
    15
100
AcDbLine
 10
6.9469286204
 20
3.1496576047
 30
0.0
 11
2.1449286375
 21
3.1496576047
 31
0.0
  0
LINE
  5
BF
330
1F
100
AcDbEntity
  8
0
  6
Continuous
 62
     7
370
    15
100
AcDbLine
 10
7.2469286535
 20
2.8296576027
 30
0.0
 11
2.1449286375
 21
2.8296576027
 31
0.0
  0
LINE
  5
C0
330
1F
100
AcDbEntity
  8
0
  6
Continuous
 62
     7
370
    15
100
AcDbLine
 10
7.2469286535
 20
3.4496576084
 30
0.0
 11
7.2469286535
 21
2.8296576027
 31
0.0
  0
LINE
  5
C1
330
1F
100
AcDbEntity
  8
0
  6
Continuous
 62
     7
370
    15
100
AcDbLine
 10
7.2469286535
 20
3.4496576084
 30
0.0
 11
6.9469286204
 21
3.1496576047
 31
0.0
  0
LINE
  5
C2
330
1F
100
AcDbEntity
  8
0
  6
Continuous
 62
     7
370
    15
100
AcDbLine
 10
7.5669286261
 20
4.0545507699
 30
0.0
 11
7.5669286261
 21
4.1052314965
 31
0.0
  0
LINE
  5
C3
330
1F
100
AcDbEntity
  8
0
  6
Continuous
 62
     7
370
    15
100
AcDbLine
 10
7.5669286261
 20
4.2902287674
 30
0.0
 11
7.5669286261
 21
4.3447644947
 31
0.0
  0
LINE
  5
C4
330
1F
100
AcDbEntity
  8
0
  6
Continuous
 62
     7
370
    15
100
AcDbLine
 10
7.5669286261
 20
4.0545507699
 30
0.0
 11
7.2469286535
 21
4.0545507699
 31
0.0
  0
LINE
  5
C5
330
1F
100
AcDbEntity
  8
0
  6
Continuous
 62
     7
370
    15
100
AcDbLine
 10
7.2469286535
 20
4.3447644947
 30
0.0
 11
7.5669286261
 21
4.3447644947
 31
0.0
  0
LINE
  5
C6
330
1F
100
AcDbEntity
  8
0
  6
Continuous
 62
     7
370
    15
100
AcDbLine
 10
9.0669285567
 20
5.3296575651
 30
0.0
 11
9.0669285567
 21
2.8296576027
 31
0.0
  0
LINE
  5
C7
330
1F
100
AcDbEntity
  8
0
  6
Continuous
 62
     7
370
    15
100
AcDbLine
 10
7.5669286261
 20
5.3296575651
 30
0.0
 11
9.0669285567
 21
5.3296575651
 31
0.0
  0
LINE
  5
C8
330
1F
100
AcDbEntity
  8
0
  6
Continuous
 62
     7
370
    15
100
AcDbLine
 10
7.5669286261
 20
4.3447644947
 30
0.0
 11
7.5669286261
 21
5.3296575651
 31
0.0
  0
LINE
  5
C9
330
1F
100
AcDbEntity
  8
0
  6
Continuous
 62
     7
370
    15
100
AcDbLine
 10
7.2469286535
 20
5.6496575378
 30
0.0
 11
7.2469286535
 21
4.7344427664
 31
0.0
  0
LINE
  5
CA
330
1F
100
AcDbEntity
  8
0
  6
Continuous
 62
     7
370
    15
100
AcDbLine
 10
9.3869285293
 20
3.1496576047
 30
0.0
 11
9.3869285293
 21
5.6496575378
 31
0.0
  0
LINE
  5
CB
330
1F
100
AcDbEntity
  8
0
  6
Continuous
 62
     7
370
    15
100
AcDbLine
 10
9.3869285293
 20
5.6496575378
 30
0.0
 11
7.2469286535
 21
5.6496575378
 31
0.0
  0
LINE
  5
CC
330
1F
100
AcDbEntity
  8
0
  6
Continuous
 62
     7
370
    15
100
AcDbLine
 10
9.0669285567
 20
2.8296576027
 30
0.0
 11
9.3869285293
 21
2.8296576027
 31
0.0
  0
LINE
  5
CD
330
1F
100
AcDbEntity
  8
0
  6
Continuous
 62
     7
370
    15
100
AcDbLine
 10
7.2469286535
 20
3.7494427772
 30
0.0
 11
7.2469286535
 21
3.4496576084
 31
0.0
  0
LINE
  5
CE
330
1F
100
AcDbEntity
  8
0
  6
Continuous
 62
     7
370
    15
100
AcDbLine
 10
7.5669286261
 20
2.8296576027
 30
0.0
 11
7.5669286261
 21
4.0545507699
 31
0.0
  0
LINE
  5
CF
330
1F
100
AcDbEntity
  8
0
  6
Continuous
 62
     7
370
    15
100
AcDbLine
 10
7.5669286261
 20
2.8296576027
 30
0.0
 11
7.2469286535
 21
2.8296576027
 31
0.0
  0
LINE
  5
D0
330
1F
100
AcDbEntity
  8
0
  6
Continuous
 62
     7
370
    15
100
AcDbLine
 10
6.873526439
 20
4.126974696
 30
0.0
 11
6.8542668642
 21
4.1215838782
 31
0.0
  0
LINE
  5
D1
330
1F
100
AcDbEntity
  8
0
  6
Continuous
 62
     7
370
    15
100
AcDbLine
 10
6.8515712793
 20
4.131213783
 30
0.0
 11
6.8708310888
 21
4.136604542
 31
0.0
  0
SPLINE
  5
D2
330
1F
100
AcDbEntity
  8
0
  6
Continuous
 62
     7
370
    15
100
AcDbSpline
210
0.0
220
0.0
230
1.0
 70
     8
 71
     3
 72
    18
 73
    14
 74
     0
 42
0.00000001
 43
0.00000001
 12
1.0
 22
0.0
 32
0.0
 13
1.0
 23
0.0
 33
0.0
 40
0.0
 40
0.0
 40
0.0
 40
0.0
 40
0.0081227834428016
 40
0.1120181103606499
 40
0.2160151629893097
 40
0.3218627189381339
 40
0.4301898165293965
 40
0.5008564929769351
 40
0.6100789627284773
 40
0.7193447401611816
 40
0.8274619157667182
 40
0.9340637396542656
 40
1.0
 40
1.0
 40
1.0
 40
1.0
 10
6.864092713341581
 20
4.160679303935768
 30
0.0
 10
6.864133958966054
 20
4.160690479755018
 30
0.0
 10
6.864702761144116
 20
4.160844601080898
 30
0.0
 10
6.865860404112499
 20
4.16093746853706
 30
0.0
 10
6.867478610568694
 20
4.160529683691456
 30
0.0
 10
6.86888929210676
 20
4.159613593116061
 30
0.0
 10
6.869809298841419
 20
4.158427717998875
 30
0.0
 10
6.870368727373674
 20
4.15703806148353
 30
0.0
 10
6.870527217688804
 20
4.155519567658927
 30
0.0
 10
6.870118115741919
 20
4.153834298052564
 30
0.0
 10
6.869168827907221
 20
4.152395323109943
 30
0.0
 10
6.867976915436325
 20
4.151463205621191
 30
0.0
 10
6.867116771636218
 20
4.15116381337203
 30
0.0
 10
6.866788063537999
 20
4.15104939918125
 30
0.0
  0
LINE
  5
D3
330
1F
100
AcDbEntity
  8
0
  6
Continuous
 62
     7
370
    15
100
AcDbLine
 10
6.8448329038
 20
4.1552885449
 30
0.0
 11
6.8640927133
 21
4.1606793039
 31
0.0
  0
SPLINE
  5
D4
330
1F
100
AcDbEntity
  8
0
  6
Continuous
 62
     7
370
    15
100
AcDbSpline
210
0.0
220
0.0
230
1.0
 70
     8
 71
     3
 72
    17
 73
    13
 74
     0
 42
0.00000001
 43
0.00000001
 12
1.0
 22
0.0
 32
0.0
 13
1.0
 23
0.0
 33
0.0
 40
0.0
 40
0.0
 40
0.0
 40
0.0
 40
0.0400169069384357
 40
0.1452148170265001
 40
0.2506341407716531
 40
0.3568643944931776
 40
0.4644460743487782
 40
0.573598875932057
 40
0.6838656483664723
 40
0.7939647371986552
 40
0.9022795816758484
 40
1.0
 40
1.0
 40
1.0
 40
1.0
 10
6.847528254028962
 20
4.145658640122425
 30
0.0
 10
6.847323327264621
 20
4.145609733582655
 30
0.0
 10
6.846579681519253
 20
4.145432259740538
 30
0.0
 10
6.845231288633896
 20
4.145472532725039
 30
0.0
 10
6.843647295488397
 20
4.146054069093773
 30
0.0
 10
6.84233685227194
 20
4.147130413488006
 30
0.0
 10
6.841447703829007
 20
4.148584913149914
 30
0.0
 10
6.841086740169269
 20
4.150266447605971
 30
0.0
 10
6.841310726325467
 20
4.151989253258424
 30
0.0
 10
6.842105836926197
 20
4.153530365362343
 30
0.0
 10
6.843327430317203
 20
4.154715808890042
 30
0.0
 10
6.84434858202118
 20
4.155104291532211
 30
0.0
 10
6.844832903832544
 20
4.155288544876944
 30
0.0
  0
LINE
  5
D5
330
1F
100
AcDbEntity
  8
0
  6
Continuous
 62
     7
370
    15
100
AcDbLine
 10
6.8667880635
 20
4.1510493992
 30
0.0
 11
6.847528254
 21
4.1456586401
 31
0.0
  0
SPLINE
  5
D6
330
1F
100
AcDbEntity
  8
0
  6
Continuous
 62
     7
370
    15
100
AcDbSpline
210
0.0
220
0.0
230
1.0
 70
     8
 71
     3
 72
    18
 73
    14
 74
     0
 42
0.00000001
 43
0.00000001
 12
1.0
 22
0.0
 32
0.0
 13
1.0
 23
0.0
 33
0.0
 40
0.0
 40
0.0
 40
0.0
 40
0.0
 40
0.0249492359425259
 40
0.1193742523157273
 40
0.2150772581406121
 40
0.3170982033955517
 40
0.4277656861610736
 40
0.5021507039785816
 40
0.6191811572995515
 40
0.7363952808254269
 40
0.8482244506887187
 40
0.9525649704174153
 40
1.0
 40
1.0
 40
1.0
 40
1.0
 10
6.857354103186581
 20
4.184754007156076
 30
0.0
 10
6.857485305837968
 20
4.184787186945164
 30
0.0
 10
6.858113069287207
 20
4.184945941807381
 30
0.0
 10
6.859299033687309
 20
4.184981007139606
 30
0.0
 10
6.860808931523074
 20
4.184563086424669
 30
0.0
 10
6.862157023604225
 20
4.183676023896883
 30
0.0
 10
6.863064809559714
 20
4.182513698933215
 30
0.0
 10
6.863638105571218
 20
4.181100101404645
 30
0.0
 10
6.863793285119285
 20
4.179518433873329
 30
0.0
 10
6.863323347498976
 20
4.177757620273987
 30
0.0
 10
6.862272981031546
 20
4.176299716826543
 30
0.0
 10
6.861076960613856
 20
4.175464291268722
 30
0.0
 10
6.860294297067575
 20
4.17520515117482
 30
0.0
 10
6.860049688046955
 20
4.175124161067546
 30
0.0
  0
LINE
  5
D7
330
1F
100
AcDbEntity
  8
0
  6
Continuous
 62
     7
370
    15
100
AcDbLine
 10
6.8380945283
 20
4.1793632481
 30
0.0
 11
6.8573541032
 21
4.1847540072
 31
0.0
  0
SPLINE
  5
D8
330
1F
100
AcDbEntity
  8
0
  6
Continuous
 62
     7
370
    15
100
AcDbSpline
210
0.0
220
0.0
230
1.0
 70
     8
 71
     3
 72
    17
 73
    13
 74
     0
 42
0.00000001
 43
0.00000001
 12
1.0
 22
0.0
 32
0.0
 13
1.0
 23
0.0
 33
0.0
 40
0.0
 40
0.0
 40
0.0
 40
0.0
 40
0.0519836032794963
 40
0.1492196707701912
 40
0.2481048061739276
 40
0.3515591374317035
 40
0.4614844469656509
 40
0.5779734328194306
 40
0.6981110736136537
 40
0.8158745664034712
 40
0.9251018636250145
 40
1.0
 40
1.0
 40
1.0
 40
1.0
 10
6.840789878537917
 20
4.169733343342733
 30
0.0
 10
6.840514360259872
 20
4.169671158681813
 30
0.0
 10
6.839723481133625
 20
4.16949265673035
 30
0.0
 10
6.838357998504134
 20
4.169584821443104
 30
0.0
 10
6.836857348223658
 20
4.170167509708773
 30
0.0
 10
6.8355912391606
 20
4.171218339583866
 30
0.0
 10
6.834702446561811
 20
4.17266887866718
 30
0.0
 10
6.834336613025549
 20
4.174400726532715
 30
0.0
 10
6.83460582697467
 20
4.176209165784131
 30
0.0
 10
6.835508793141319
 20
4.177801258711947
 30
0.0
 10
6.836766310737652
 20
4.178885189207704
 30
0.0
 10
6.837710466677769
 20
4.179225014654215
 30
0.0
 10
6.838094528341499
 20
4.179363248097251
 30
0.0
  0
LINE
  5
D9
330
1F
100
AcDbEntity
  8
0
  6
Continuous
 62
     7
370
    15
100
AcDbLine
 10
6.860049688
 20
4.1751241611
 30
0.0
 11
6.8407898785
 21
4.1697333433
 31
0.0
  0
SPLINE
  5
DA
330
1F
100
AcDbEntity
  8
0
  6
Continuous
 62
     7
370
    15
100
AcDbSpline
210
0.0
220
0.0
230
1.0
 70
     8
 71
     3
 72
    19
 73
    15
 74
     0
 42
0.00000001
 43
0.00000001
 12
1.0
 22
0.0
 32
0.0
 13
1.0
 23
0.0
 33
0.0
 40
0.0
 40
0.0
 40
0.0
 40
0.0
 40
0.0063781347216277
 40
0.0855356940651388
 40
0.1648254204991471
 40
0.2540877712141173
 40
0.3603029104379791
 40
0.4864323485818684
 40
0.5043695831493776
 40
0.6509537880169989
 40
0.7655259166423487
 40
0.8807753557872363
 40
0.978740890705332
 40
1.0
 40
1.0
 40
1.0
 40
1.0
 10
6.850615727695536
 20
4.208828769042372
 30
0.0
 10
6.850651277385122
 20
4.208838451833822
 30
0.0
 10
6.851128026075015
 20
4.20896830551728
 30
0.0
 10
6.852089348659075
 20
4.209073191338535
 30
0.0
 10
6.85345555662304
 20
4.208851619990724
 30
0.0
 10
6.854771690724069
 20
4.208240422257056
 30
0.0
 10
6.855967373003035
 20
4.20716674308835
 30
0.0
 10
6.856553072813101
 20
4.206100169485484
 30
0.0
 10
6.856961217114838
 20
4.204776299731069
 30
0.0
 10
6.857054424709311
 20
4.203394469310149
 30
0.0
 10
6.856438828597362
 20
4.201543406885436
 30
0.0
 10
6.855281435850393
 20
4.20012871884027
 30
0.0
 10
6.854087470516273
 20
4.199435730299716
 30
0.0
 10
6.853428567745718
 20
4.199234708720456
 30
0.0
 10
6.853311077891953
 20
4.199198864287854
 30
0.0
  0
LINE
  5
DB
330
1F
100
AcDbEntity
  8
0
  6
Continuous
 62
     7
370
    15
100
AcDbLine
 10
6.8313559182
 20
4.20343801
 30
0.0
 11
6.8506157277
 21
4.208828769
 31
0.0
  0
SPLINE
  5
DC
330
1F
100
AcDbEntity
  8
0
  6
Continuous
 62
     7
370
    15
100
AcDbSpline
210
0.0
220
0.0
230
1.0
 70
     8
 71
     3
 72
    17
 73
    13
 74
     0
 42
0.00000001
 43
0.00000001
 12
1.0
 22
0.0
 32
0.0
 13
1.0
 23
0.0
 33
0.0
 40
0.0
 40
0.0
 40
0.0
 40
0.0
 40
0.0643718642745611
 40
0.1471492202747398
 40
0.2351116256256981
 40
0.334296349556029
 40
0.4492035826793259
 40
0.5809025150955538
 40
0.7225390203058784
 40
0.8291435352078813
 40
0.9174962001840637
 40
1.0
 40
1.0
 40
1.0
 40
1.0
 10
6.834051268382916
 20
4.193808105229029
 30
0.0
 10
6.833685451954336
 20
4.193731399214408
 30
0.0
 10
6.832849223225587
 20
4.193556055057934
 30
0.0
 10
6.831500742742132
 20
4.193703747776586
 30
0.0
 10
6.830131124809613
 20
4.194248701788904
 30
0.0
 10
6.828909977735941
 20
4.195234389452644
 30
0.0
 10
6.827984031345606
 20
4.196674316894637
 30
0.0
 10
6.827576369868318
 20
4.198508163166055
 30
0.0
 10
6.827890841598989
 20
4.200370433917439
 30
0.0
 10
6.828804320614214
 20
4.201875573391863
 30
0.0
 10
6.829973193855588
 20
4.202920416322309
 30
0.0
 10
6.830905650218968
 20
4.203269461675948
 30
0.0
 10
6.831355918186499
 20
4.203438009983548
 30
0.0
  0
LINE
  5
DD
330
1F
100
AcDbEntity
  8
0
  6
Continuous
 62
     7
370
    15
100
AcDbLine
 10
6.8533110779
 20
4.1991988643
 30
0.0
 11
6.8340512684
 21
4.1938081052
 31
0.0
  0
SPLINE
  5
DE
330
1F
100
AcDbEntity
  8
0
  6
Continuous
 62
     7
370
    15
100
AcDbSpline
210
0.0
220
0.0
230
1.0
 70
     8
 71
     3
 72
    18
 73
    14
 74
     0
 42
0.00000001
 43
0.00000001
 12
1.0
 22
0.0
 32
0.0
 13
1.0
 23
0.0
 33
0.0
 40
0.0
 40
0.0
 40
0.0
 40
0.0
 40
0.0300407043045772
 40
0.0822126119686317
 40
0.1578646057893514
 40
0.272214165815082
 40
0.4439530631959291
 40
0.5097575466560721
 40
0.6911813191019494
 40
0.8010591867404091
 40
0.8852262330595967
 40
0.9516284292215059
 40
1.0
 40
1.0
 40
1.0
 40
1.0
 10
6.843877352204491
 20
4.232903530928668
 30
0.0
 10
6.844071711586952
 20
4.232950406437457
 30
0.0
 10
6.844603616309644
 20
4.23307869098018
 30
0.0
 10
6.845629242760991
 20
4.233118256044551
 30
0.0
 10
6.847019902327649
 20
4.232844807226704
 30
0.0
 10
6.84861880611017
 20
4.231946822128647
 30
0.0
 10
6.84959724433199
 20
4.230684543487033
 30
0.0
 10
6.850240347686938
 20
4.228973293493296
 30
0.0
 10
6.850319299881659
 20
4.227325487657305
 30
0.0
 10
6.849619247657534
 20
4.225527599631708
 30
0.0
 10
6.848653000159833
 20
4.224366209942671
 30
0.0
 10
6.847602228434688
 20
4.223627061802098
 30
0.0
 10
6.846877950421523
 20
4.223378417624104
 30
0.0
 10
6.846572702400909
 20
4.22327362617415
 30
0.0
  0
LINE
  5
DF
330
1F
100
AcDbEntity
  8
0
  6
Continuous
 62
     7
370
    15
100
AcDbLine
 10
6.8246175427
 20
4.2275127132
 30
0.0
 11
6.8438773522
 21
4.2329035309
 31
0.0
  0
SPLINE
  5
E0
330
1F
100
AcDbEntity
  8
0
  6
Continuous
 62
     7
370
    15
100
AcDbSpline
210
0.0
220
0.0
230
1.0
 70
     8
 71
     3
 72
    18
 73
    14
 74
     0
 42
0.00000001
 43
0.00000001
 12
1.0
 22
0.0
 32
0.0
 13
1.0
 23
0.0
 33
0.0
 40
0.0
 40
0.0
 40
0.0
 40
0.0
 40
0.0186200666382182
 40
0.0783730010949919
 40
0.1406263017080706
 40
0.2366592239816918
 40
0.3736261276054561
 40
0.5581670738722825
 40
0.7450415768979375
 40
0.8408246374735879
 40
0.9158926097279905
 40
0.9727186082961039
 40
1.0
 40
1.0
 40
1.0
 40
1.0
 10
6.827312892891872
 20
4.217882808449336
 30
0.0
 10
6.827193038958919
 20
4.217852211057229
 30
0.0
 10
6.826688566413193
 20
4.217723424759537
 30
0.0
 10
6.825755342183029
 20
4.217657678641055
 30
0.0
 10
6.82442668379977
 20
4.217869387503342
 30
0.0
 10
6.822939218478449
 20
4.218577604267325
 30
0.0
 10
6.821529388353938
 20
4.220055322122377
 30
0.0
 10
6.820794974272803
 20
4.222207759444249
 30
0.0
 10
6.821084000430352
 20
4.224320585440291
 30
0.0
 10
6.822027380954159
 20
4.225885514087578
 30
0.0
 10
6.823002854269306
 20
4.226785999700871
 30
0.0
 10
6.823911087261587
 20
4.227289548247729
 30
0.0
 10
6.824444517305727
 20
4.227458055540177
 30
0.0
 10
6.824617542695455
 20
4.227512713203855
 30
0.0
  0
LINE
  5
E1
330
1F
100
AcDbEntity
  8
0
  6
Continuous
 62
     7
370
    15
100
AcDbLine
 10
6.8465727024
 20
4.2232736262
 30
0.0
 11
6.8273128929
 21
4.2178828084
 31
0.0
  0
SPLINE
  5
E2
330
1F
100
AcDbEntity
  8
0
  6
Continuous
 62
     7
370
    15
100
AcDbSpline
210
0.0
220
0.0
230
1.0
 70
     8
 71
     3
 72
    18
 73
    14
 74
     0
 42
0.00000001
 43
0.00000001
 12
1.0
 22
0.0
 32
0.0
 13
1.0
 23
0.0
 33
0.0
 40
0.0
 40
0.0
 40
0.0
 40
0.0
 40
0.0081385224994216
 40
0.1133687683037173
 40
0.2186362672223417
 40
0.3245500950741939
 40
0.4316601959271552
 40
0.4992763805323496
 40
0.6095205769581256
 40
0.719773073375152
 40
0.8294410627081453
 40
0.9369120067815737
 40
1.0
 40
1.0
 40
1.0
 40
1.0
 10
6.877569698987626
 20
4.112529838829165
 30
0.0
 10
6.877611022561821
 20
4.112541034718485
 30
0.0
 10
6.878186655633883
 20
4.112696992287256
 30
0.0
 10
6.879359098385434
 20
4.112788681216389
 30
0.0
 10
6.880994439944634
 20
4.112365308815363
 30
0.0
 10
6.88240463028119
 20
4.111428684762368
 30
0.0
 10
6.883302774521253
 20
4.110244834599778
 30
0.0
 10
6.88384953863564
 20
4.108866830746397
 30
0.0
 10
6.884003983224094
 20
4.107357050422609
 30
0.0
 10
6.883587626314958
 20
4.105665143837137
 30
0.0
 10
6.882626104885323
 20
4.10422244037515
 30
0.0
 10
6.881430387781717
 20
4.103302501571166
 30
0.0
 10
6.880579707174143
 20
4.103008633022392
 30
0.0
 10
6.880265049184044
 20
4.102899934074646
 30
0.0
  0
LINE
  5
E3
330
1F
100
AcDbEntity
  8
0
  6
Continuous
 62
     7
370
    15
100
AcDbLine
 10
6.8583098895
 20
4.1071390211
 30
0.0
 11
6.877569699
 21
4.1125298388
 31
0.0
  0
SPLINE
  5
E4
330
1F
100
AcDbEntity
  8
0
  6
Continuous
 62
     7
370
    15
100
AcDbSpline
210
0.0
220
0.0
230
1.0
 70
     8
 71
     3
 72
    17
 73
    13
 74
     0
 42
0.00000001
 43
0.00000001
 12
1.0
 22
0.0
 32
0.0
 13
1.0
 23
0.0
 33
0.0
 40
0.0
 40
0.0
 40
0.0
 40
0.0
 40
0.0422381612237263
 40
0.1459659143088846
 40
0.2504320835896832
 40
0.3571117166151578
 40
0.4661670039388954
 40
0.5764875304444297
 40
0.6865020598917474
 40
0.7951358334807599
 40
0.9021776446591023
 40
1.0
 40
1.0
 40
1.0
 40
1.0
 10
6.861005239675007
 20
4.097509175015822
 30
0.0
 10
6.860788790806131
 20
4.097457960150775
 30
0.0
 10
6.860040790511344
 20
4.097280972697106
 30
0.0
 10
6.858695593075693
 20
4.097328278690918
 30
0.0
 10
6.85712928717223
 20
4.097903495233241
 30
0.0
 10
6.855820132355112
 20
4.098972729463157
 30
0.0
 10
6.854922883037546
 20
4.100433903303326
 30
0.0
 10
6.854561954057656
 20
4.102130928783708
 30
0.0
 10
6.854793955448882
 20
4.103859786650648
 30
0.0
 10
6.855593452106081
 20
4.105392267853504
 30
0.0
 10
6.856809664542263
 20
4.106568525427321
 30
0.0
 10
6.8578250461631
 20
4.106954648075463
 30
0.0
 10
6.858309889478589
 20
4.107139021104351
 30
0.0
  0
LINE
  5
E5
330
1F
100
AcDbEntity
  8
0
  6
Continuous
 62
     7
370
    15
100
AcDbLine
 10
6.8802650492
 20
4.1028999341
 30
0.0
 11
6.8610052397
 21
4.097509175
 31
0.0
  0
SPLINE
  5
E6
330
1F
100
AcDbEntity
  8
0
  6
Continuous
 62
     7
370
    15
100
AcDbSpline
210
0.0
220
0.0
230
1.0
 70
     8
 71
     3
 72
    18
 73
    14
 74
     0
 42
0.00000001
 43
0.00000001
 12
1.0
 22
0.0
 32
0.0
 13
1.0
 23
0.0
 33
0.0
 40
0.0
 40
0.0
 40
0.0
 40
0.0
 40
0.025493148731525
 40
0.1228534180039468
 40
0.2209647051623268
 40
0.3229328426621904
 40
0.4309989785900626
 40
0.4984174803307522
 40
0.6178788052356319
 40
0.7374566211707294
 40
0.8529079717565933
 40
0.9587453412131369
 40
1.0
 40
1.0
 40
1.0
 40
1.0
 10
6.88430807447867
 20
4.088455076942869
 30
0.0
 10
6.884442143575166
 20
4.088488887514826
 30
0.0
 10
6.885088232723527
 20
4.088651823226432
 30
0.0
 10
6.886309383995889
 20
4.088680303551567
 30
0.0
 10
6.887852820582796
 20
4.088226210048679
 30
0.0
 10
6.889195783672217
 20
4.087296904750864
 30
0.0
 10
6.890054747372836
 20
4.086141329763156
 30
0.0
 10
6.890600522064518
 20
4.084752229914818
 30
0.0
 10
6.890746734570465
 20
4.08318950991502
 30
0.0
 10
6.890258818928587
 20
4.081414911719793
 30
0.0
 10
6.889180420412122
 20
4.079949882008116
 30
0.0
 10
6.8879760009294
 20
4.079140844658632
 30
0.0
 10
6.887216453649203
 20
4.078894315746196
 30
0.0
 10
6.887003424675089
 20
4.07882517218835
 30
0.0
  0
LINE
  5
E7
330
1F
100
AcDbEntity
  8
0
  6
Continuous
 62
     7
370
    15
100
AcDbLine
 10
6.865048265
 20
4.0830643179
 30
0.0
 11
6.8843080745
 21
4.0884550769
 31
0.0
  0
SPLINE
  5
E8
330
1F
100
AcDbEntity
  8
0
  6
Continuous
 62
     7
370
    15
100
AcDbSpline
210
0.0
220
0.0
230
1.0
 70
     8
 71
     3
 72
    17
 73
    13
 74
     0
 42
0.00000001
 43
0.00000001
 12
1.0
 22
0.0
 32
0.0
 13
1.0
 23
0.0
 33
0.0
 40
0.0
 40
0.0
 40
0.0
 40
0.0
 40
0.0562810840249345
 40
0.1504605310502658
 40
0.247812260174861
 40
0.3526052132920342
 40
0.466037850325919
 40
0.5853989710769893
 40
0.7048424562429304
 40
0.8187597615209088
 40
0.9250419341837927
 40
1.0
 40
1.0
 40
1.0
 40
1.0
 10
6.867743615166051
 20
4.073434413129525
 30
0.0
 10
6.867444871177897
 20
4.073368195088268
 30
0.0
 10
6.866646216001211
 20
4.073191169328632
 30
0.0
 10
6.865289969111475
 20
4.073296120371246
 30
0.0
 10
6.863822903897411
 20
4.073864646422631
 30
0.0
 10
6.862555536880146
 20
4.0749047772761
 30
0.0
 10
6.861649517809655
 20
4.076374048358274
 30
0.0
 10
6.861285410530286
 20
4.078142551926712
 30
0.0
 10
6.861579410745613
 20
4.079964737371673
 30
0.0
 10
6.862494262679499
 20
4.081533822193093
 30
0.0
 10
6.863734739214777
 20
4.082591543303973
 30
0.0
 10
6.86466395582967
 20
4.082925994298388
 30
0.0
 10
6.865048264969634
 20
4.083064317884044
 30
0.0
  0
LINE
  5
E9
330
1F
100
AcDbEntity
  8
0
  6
Continuous
 62
     7
370
    15
100
AcDbLine
 10
6.8870034247
 20
4.0788251722
 30
0.0
 11
6.8677436152
 21
4.0734344131
 31
0.0
  0
SPLINE
  5
EA
330
1F
100
AcDbEntity
  8
0
  6
Continuous
 62
     7
370
    15
100
AcDbSpline
210
0.0
220
0.0
230
1.0
 70
     8
 71
     3
 72
    18
 73
    14
 74
     0
 42
0.00000001
 43
0.00000001
 12
1.0
 22
0.0
 32
0.0
 13
1.0
 23
0.0
 33
0.0
 40
0.0
 40
0.0
 40
0.0
 40
0.0
 40
0.0163567951557794
 40
0.0995181185019011
 40
0.1837154764799555
 40
0.2758362135569057
 40
0.3813448452294608
 40
0.4965519336966904
 40
0.6430141041351854
 40
0.7839821003145825
 40
0.8790432380945993
 40
0.9746679071391131
 40
1.0
 40
1.0
 40
1.0
 40
1.0
 10
6.891046684633671
 20
4.064380373722561
 30
0.0
 10
6.891138126553392
 20
4.0644042206478
 30
0.0
 10
6.891694478070675
 20
4.064549310264026
 30
0.0
 10
6.892769393633718
 20
4.064618870558814
 30
0.0
 10
6.89419426650057
 20
4.064305031283693
 30
0.0
 10
6.895513656616814
 20
4.063573059891725
 30
0.0
 10
6.896606339627908
 20
4.062420541601019
 30
0.0
 10
6.897361575815878
 20
4.060796866973829
 30
0.0
 10
6.897490465705636
 20
4.058841900136981
 30
0.0
 10
6.896823821892315
 20
4.05700417558909
 30
0.0
 10
6.895635862760797
 20
4.05564960901803
 30
0.0
 10
6.894549776711035
 20
4.055000342422026
 30
0.0
 10
6.893881907360832
 20
4.05479373827622
 30
0.0
 10
6.89374203483009
 20
4.054750468968042
 30
0.0
  0
LINE
  5
EB
330
1F
100
AcDbEntity
  8
0
  6
Continuous
 62
     7
370
    15
100
AcDbLine
 10
6.8717868751
 20
4.058989556
 30
0.0
 11
6.8910466846
 21
4.0643803737
 31
0.0
  0
SPLINE
  5
EC
330
1F
100
AcDbEntity
  8
0
  6
Continuous
 62
     7
370
    15
100
AcDbSpline
210
0.0
220
0.0
230
1.0
 70
     8
 71
     3
 72
    17
 73
    13
 74
     0
 42
0.00000001
 43
0.00000001
 12
1.0
 22
0.0
 32
0.0
 13
1.0
 23
0.0
 33
0.0
 40
0.0
 40
0.0
 40
0.0
 40
0.0
 40
0.0573588847022345
 40
0.1352573294270978
 40
0.2199376685357889
 40
0.3193204024663575
 40
0.4382417971818915
 40
0.5747745317529643
 40
0.7160111211446737
 40
0.8202594173398122
 40
0.9250567413870968
 40
1.0
 40
1.0
 40
1.0
 40
1.0
 10
6.874482225321053
 20
4.049359651243229
 30
0.0
 10
6.874157027983446
 20
4.049289100496718
 30
0.0
 10
6.873390183864186
 20
4.049122735588965
 30
0.0
 10
6.872133483326256
 20
4.049217563286762
 30
0.0
 10
6.87079942683899
 20
4.049674246079972
 30
0.0
 10
6.869542731980546
 20
4.050572205003723
 30
0.0
 10
6.868521632874392
 20
4.051971812493599
 30
0.0
 10
6.868009940022747
 20
4.053827023058224
 30
0.0
 10
6.868260175940561
 20
4.055751104477442
 30
0.0
 10
6.869176956310145
 20
4.057381559834185
 30
0.0
 10
6.870395894338984
 20
4.058481001263038
 30
0.0
 10
6.871377565165181
 20
4.058839908698525
 30
0.0
 10
6.871786875124634
 20
4.058989555997748
 30
0.0
  0
LINE
  5
ED
330
1F
100
AcDbEntity
  8
0
  6
Continuous
 62
     7
370
    15
100
AcDbLine
 10
6.8937420348
 20
4.054750469
 30
0.0
 11
6.8744822253
 21
4.0493596512
 31
0.0
  0
SPLINE
  5
EE
330
1F
100
AcDbEntity
  8
0
  6
Continuous
 62
     7
370
    15
100
AcDbSpline
210
0.0
220
0.0
230
1.0
 70
     8
 71
     3
 72
    18
 73
    14
 74
     0
 42
0.00000001
 43
0.00000001
 12
1.0
 22
0.0
 32
0.0
 13
1.0
 23
0.0
 33
0.0
 40
0.0
 40
0.0
 40
0.0
 40
0.0
 40
0.0279460787263205
 40
0.0873323144642112
 40
0.1507962097666513
 40
0.2509174136706238
 40
0.3939875017553468
 40
0.4906533341694323
 40
0.6838939719330741
 40
0.8048980571609228
 40
0.8885851934048336
 40
0.950467801453858
 40
1.0
 40
1.0
 40
1.0
 40
1.0
 10
6.897785060124716
 20
4.040305611836264
 30
0.0
 10
6.897965662071888
 20
4.040349654282038
 30
0.0
 10
6.89853004844601
 20
4.040487288214932
 30
0.0
 10
6.899524916747787
 20
4.040518979629841
 30
0.0
 10
6.900858152912236
 20
4.040258549915573
 30
0.0
 10
6.902347874186805
 20
4.039472478056004
 30
0.0
 10
6.903420545438557
 20
4.038230143956244
 30
0.0
 10
6.904165624963704
 20
4.036454379140531
 30
0.0
 10
6.904214513310171
 20
4.034615267981684
 30
0.0
 10
6.903471962317114
 20
4.032836726632733
 30
0.0
 10
6.902504483842619
 20
4.031727707623696
 30
0.0
 10
6.901496464196548
 20
4.031026709282814
 30
0.0
 10
6.900793105684719
 20
4.030783729661589
 30
0.0
 10
6.900480410321134
 20
4.030675707081746
 30
0.0
  0
LINE
  5
EF
330
1F
100
AcDbEntity
  8
0
  6
Continuous
 62
     7
370
    15
100
AcDbLine
 10
6.8785252506
 20
4.0349148528
 30
0.0
 11
6.8977850601
 21
4.0403056118
 31
0.0
  0
SPLINE
  5
F0
330
1F
100
AcDbEntity
  8
0
  6
Continuous
 62
     7
370
    15
100
AcDbSpline
210
0.0
220
0.0
230
1.0
 70
     8
 71
     3
 72
    18
 73
    14
 74
     0
 42
0.00000001
 43
0.00000001
 12
1.0
 22
0.0
 32
0.0
 13
1.0
 23
0.0
 33
0.0
 40
0.0
 40
0.0
 40
0.0
 40
0.0
 40
0.0130143248438914
 40
0.0660874447252896
 40
0.1353032815684222
 40
0.2371242132160877
 40
0.3939667475625277
 40
0.557544831395802
 40
0.71332850637525
 40
0.8187389594139189
 40
0.8983215939629308
 40
0.9628698336870252
 40
1.0
 40
1.0
 40
1.0
 40
1.0
 10
6.881220600812097
 20
4.025284948022922
 30
0.0
 10
6.881136979284914
 20
4.02526297480892
 30
0.0
 10
6.880712344651788
 20
4.025151393641006
 30
0.0
 10
6.879818661982902
 20
4.025055024367153
 30
0.0
 10
6.878472832035667
 20
4.025224307277118
 30
0.0
 10
6.876896616036435
 20
4.025931023652708
 30
0.0
 10
6.875534530476546
 20
4.027331065514069
 30
0.0
 10
6.874787435724005
 20
4.029295861072728
 30
0.0
 10
6.874885387440685
 20
4.031281986393487
 30
0.0
 10
6.875638268644034
 20
4.03290910336172
 30
0.0
 10
6.87664435111686
 20
4.033993406493104
 30
0.0
 10
6.877647137610796
 20
4.034626166571081
 30
0.0
 10
6.878290362515032
 20
4.034837631560674
 30
0.0
 10
6.878525250615679
 20
4.034914852777439
 30
0.0
  0
LINE
  5
F1
330
1F
100
AcDbEntity
  8
0
  6
Continuous
 62
     7
370
    15
100
AcDbLine
 10
6.9004804103
 20
4.0306757071
 30
0.0
 11
6.8812206008
 21
4.025284948
 31
0.0
  0
LWPOLYLINE
  5
F2
330
1F
100
AcDbEntity
  8
0
  6
Continuous
 62
     7
370
    15
100
AcDbPolyline
 90
       32
 70
   128
 43
0.0
 10
6.8026255407
 20
4.2504333391
 10
6.8027325475
 20
4.2500513648
 10
6.803206334
 20
4.2483582057
 10
6.8040541749
 20
4.2453294567
 10
6.8052666836
 20
4.2409970908
 10
6.8068314228
 20
4.235407102
 10
6.8087314969
 20
4.2286188018
 10
6.8109467246
 20
4.2207040559
 10
6.8134538743
 20
4.2117467567
 10
6.8162261943
 20
4.2018419431
 10
6.8192343515
 20
4.1910945099
 10
6.8224464318
 20
4.1796184451
 10
6.8258284087
 20
4.1675353634
 10
6.8293446134
 20
4.1549733912
 10
6.8329574997
 20
4.1420657003
 10
6.8366288173
 20
4.1289490412
 10
6.840319612
 20
4.1157624522
 10
6.8439909296
 20
4.102645793
 10
6.8476038158
 20
4.0897381021
 10
6.8511200205
 20
4.0771761299
 10
6.8545019975
 20
4.0650930482
 10
6.8577140777
 20
4.0536169834
 10
6.8607222349
 20
4.0428695502
 10
6.8634945549
 20
4.0329647366
 10
6.8660017046
 20
4.0240074374
 10
6.868217167
 20
4.0160926915
 10
6.8701170064
 20
4.0093043913
 10
6.8716817457
 20
4.0037144025
 10
6.8728942543
 20
3.9993820366
 10
6.8737420952
 20
3.9963532876
 10
6.8742158817
 20
3.9946601285
 10
6.8743228885
 20
3.9942781542
  0
LWPOLYLINE
  5
F3
330
1F
100
AcDbEntity
  8
0
  6
Continuous
 62
     7
370
    15
100
AcDbPolyline
 90
       32
 70
   128
 43
0.0
 10
6.8507750645
 20
4.2639103247
 10
6.8508818366
 20
4.2635282918
 10
6.8513558578
 20
4.2618351914
 10
6.852203464
 20
4.2588063837
 10
6.8534162073
 20
4.2544740764
 10
6.8549807119
 20
4.2488840877
 10
6.856880786
 20
4.2420957287
 10
6.8590962484
 20
4.2341809828
 10
6.8616033981
 20
4.2252236836
 10
6.8643757181
 20
4.2153188701
 10
6.8673838753
 20
4.2045714369
 10
6.8705959555
 20
4.1930953721
 10
6.8739779325
 20
4.181012349
 10
6.8774941372
 20
4.1684503768
 10
6.8811070235
 20
4.1555426273
 10
6.884778341
 20
4.1424259681
 10
6.8884691357
 20
4.1292394378
 10
6.8921404533
 20
4.1161227787
 10
6.8957533396
 20
4.1032150291
 10
6.8992693096
 20
4.0906530569
 10
6.9026515212
 20
4.0785699751
 10
6.9058636015
 20
4.067093969
 10
6.9088717587
 20
4.0563465359
 10
6.9116440787
 20
4.0464416636
 10
6.9141512284
 20
4.0374844231
 10
6.9163664561
 20
4.0295696772
 10
6.9182665302
 20
4.0227813183
 10
6.9198312694
 20
4.0171913295
 10
6.9210437781
 20
4.0128590222
 10
6.921891619
 20
4.0098302146
 10
6.9223654055
 20
4.0081371141
 10
6.9224724123
 20
4.0077550812
  0
SPLINE
  5
F4
330
1F
100
AcDbEntity
  8
0
  6
Continuous
 62
     7
370
    15
100
AcDbSpline
210
0.0
220
0.0
230
1.0
 70
     8
 71
     3
 72
    17
 73
    13
 74
     0
 42
0.00000001
 43
0.00000001
 12
1.0
 22
0.0
 32
0.0
 13
1.0
 23
0.0
 33
0.0
 40
0.0
 40
0.0
 40
0.0
 40
0.0
 40
0.1073279104601744
 40
0.2146407271623214
 40
0.3220086835818314
 40
0.4294088203982777
 40
0.5367552477557177
 40
0.6440467251111981
 40
0.7513675529336155
 40
0.858750955616258
 40
0.9661473109666944
 40
1.0
 40
1.0
 40
1.0
 40
1.0
 10
6.854266864183963
 20
4.121583878236129
 30
0.0
 10
6.853710713542586
 20
4.121485582062881
 30
0.0
 10
6.852598490472511
 20
4.121289003539993
 30
0.0
 10
6.850925632459416
 20
4.121715184568504
 30
0.0
 10
6.849487904322666
 20
4.122630035860133
 30
0.0
 10
6.848433784413553
 20
4.123980523439952
 30
0.0
 10
6.847886280439187
 20
4.125600743079723
 30
0.0
 10
6.847905619106566
 20
4.127310702760871
 30
0.0
 10
6.848489709342607
 20
4.128919151009049
 30
0.0
 10
6.849573234093647
 20
4.130238864618834
 30
0.0
 10
6.850700515327761
 20
4.130938885497524
 30
0.0
 10
6.851402933173058
 20
4.131160636632989
 30
0.0
 10
6.851571279323588
 20
4.131213782990647
 30
0.0
  0
SPLINE
  5
F5
330
1F
100
AcDbEntity
  8
0
  6
Continuous
 62
     7
370
    15
100
AcDbSpline
210
0.0
220
0.0
230
1.0
 70
     8
 71
     3
 72
    17
 73
    13
 74
     0
 42
0.00000001
 43
0.00000001
 12
1.0
 22
0.0
 32
0.0
 13
1.0
 23
0.0
 33
0.0
 40
0.0
 40
0.0
 40
0.0
 40
0.0
 40
0.1073263948579928
 40
0.2146368303303636
 40
0.3220052951871746
 40
0.4294009594196245
 40
0.5367458709134018
 40
0.6440358331811807
 40
0.751355145501432
 40
0.8587399347948066
 40
0.9661347735765353
 40
1.0
 40
1.0
 40
1.0
 40
1.0
 10
6.870831088832626
 20
4.136604542049472
 30
0.0
 10
6.871387237024561
 20
4.136702830771916
 30
0.0
 10
6.872499450709453
 20
4.136899393601316
 30
0.0
 10
6.874172351466544
 20
4.136473325709164
 30
0.0
 10
6.875610007854069
 20
4.135558372758956
 30
0.0
 10
6.876664188743185
 20
4.134207955472735
 30
0.0
 10
6.87721166798528
 20
4.132587731793844
 30
0.0
 10
6.877192337174823
 20
4.130877777681085
 30
0.0
 10
6.876608229935918
 20
4.12926931155677
 30
0.0
 10
6.875524727783897
 20
4.127949597898473
 30
0.0
 10
6.874397415350962
 20
4.127249387927445
 30
0.0
 10
6.873694865931159
 20
4.127027815105275
 30
0.0
 10
6.873526439029043
 20
4.126974695960942
 30
0.0
  0
LINE
  5
F6
330
1F
100
AcDbEntity
  8
0
  6
Continuous
 62
     7
370
    15
100
AcDbLine
 10
4.926378682
 20
3.1496576047
 30
0.0
 11
4.926378682
 21
3.4496576084
 31
0.0
  0
LINE
  5
F7
330
1F
100
AcDbEntity
  8
0
  6
Continuous
 62
     7
370
    15
100
AcDbLine
 10
4.926378682
 20
3.4496576084
 30
0.0
 11
2.5263786523
 21
3.4496576084
 31
0.0
  0
LINE
  5
F8
330
1F
100
AcDbEntity
  8
0
  6
Continuous
 62
     7
370
    15
100
AcDbLine
 10
2.5263786523
 20
3.1496576047
 30
0.0
 11
2.5263786523
 21
3.4496576084
 31
0.0
  0
ARC
  5
F9
330
1F
100
AcDbEntity
  8
0
  6
Continuous
 62
     7
370
    15
100
AcDbCircle
 10
4.3961989359
 20
3.6346576084
 30
0.0
 40
0.02
100
AcDbArc
 50
90.0
 51
270.0
  0
LINE
  5
FA
330
1F
100
AcDbEntity
  8
0
  6
Continuous
 62
     7
370
    15
100
AcDbLine
 10
4.797398572
 20
3.6546576055
 30
0.0
 11
4.797398572
 21
3.614657609
 31
0.0
  0
LINE
  5
FB
330
1F
100
AcDbEntity
  8
0
  6
Continuous
 62
     7
370
    15
100
AcDbLine
 10
2.8263786854
 20
3.5496576072
 30
0.0
 11
4.2644290329
 21
3.5496576072
 31
0.0
  0
LINE
  5
FC
330
1F
100
AcDbEntity
  8
0
  6
Continuous
 62
     7
370
    15
100
AcDbLine
 10
2.8263786854
 20
5.2996576557
 30
0.0
 11
2.8263786854
 21
3.5496576072
 31
0.0
  0
LINE
  5
FD
330
1F
100
AcDbEntity
  8
0
  6
Continuous
 62
     7
370
    15
100
AcDbLine
 10
4.6263786489
 20
5.2996576557
 30
0.0
 11
2.8263786854
 21
5.2996576557
 31
0.0
  0
LINE
  5
FE
330
1F
100
AcDbEntity
  8
0
  6
Continuous
 62
     7
370
    15
100
AcDbLine
 10
4.6263786489
 20
5.2996576557
 30
0.0
 11
4.6263786489
 21
3.9496576243
 31
0.0
  0
LINE
  5
FF
330
1F
100
AcDbEntity
  8
0
  6
Continuous
 62
     7
370
    15
100
AcDbLine
 10
4.2644290329
 20
3.9496576243
 30
0.0
 11
4.6263786489
 21
3.9496576243
 31
0.0
  0
LINE
  5
100
330
1F
100
AcDbEntity
  8
0
  6
Continuous
 62
     7
370
    15
100
AcDbLine
 10
4.2644290329
 20
3.9496576243
 30
0.0
 11
4.2644290329
 21
3.5496576072
 31
0.0
  0
LINE
  5
101
330
1F
100
AcDbEntity
  8
0
  6
Continuous
 62
     7
370
    15
100
AcDbLine
 10
4.4763786911
 20
4.1996576323
 30
0.0
 11
4.4763786911
 21
5.1996576056
 31
0.0
  0
LINE
  5
102
330
1F
100
AcDbEntity
  8
0
  6
Continuous
 62
     7
370
    15
100
AcDbLine
 10
4.4763786911
 20
5.1996576056
 30
0.0
 11
2.9763786432
 21
5.1996576056
 31
0.0
  0
LINE
  5
103
330
1F
100
AcDbEntity
  8
0
  6
Continuous
 62
     7
370
    15
100
AcDbLine
 10
2.9763786432
 20
5.1996576056
 30
0.0
 11
2.9763786432
 21
4.1996576323
 31
0.0
  0
LINE
  5
104
330
1F
100
AcDbEntity
  8
0
  6
Continuous
 62
     7
370
    15
100
AcDbLine
 10
2.9763786432
 20
4.1996576323
 30
0.0
 11
4.4763786911
 21
4.1996576323
 31
0.0
  0
LINE
  5
105
330
1F
100
AcDbEntity
  8
0
  6
Continuous
 62
     7
370
    15
100
AcDbLine
 10
4.6263786489
 20
5.3496576221
 30
0.0
 11
4.676378674
 21
5.3496576221
 31
0.0
  0
ARC
  5
106
330
1F
100
AcDbEntity
  8
0
  6
Continuous
 62
     7
370
    15
100
AcDbCircle
 10
4.6763786671
 20
5.2996576084
 30
0.0
 40
0.0499999999999998
100
AcDbArc
 50
0.0
 51
90.0
  0
LINE
  5
107
330
1F
100
AcDbEntity
  8
0
  6
Continuous
 62
     7
370
    15
100
AcDbLine
 10
4.7263786991
 20
5.2996576557
 30
0.0
 11
4.6263786489
 21
5.2996576557
 31
0.0
  0
LINE
  5
108
330
1F
100
AcDbEntity
  8
0
  6
Continuous
 62
     7
370
    15
100
AcDbLine
 10
4.6263786489
 20
5.3496576221
 30
0.0
 11
4.6263786489
 21
5.2996576557
 31
0.0
  0
LINE
  5
109
330
1F
100
AcDbEntity
  8
0
  6
Continuous
 62
     7
370
    15
100
AcDbLine
 10
4.7263786991
 20
5.2996576557
 30
0.0
 11
4.7263786991
 21
3.9496576243
 31
0.0
  0
LINE
  5
10A
330
1F
100
AcDbEntity
  8
0
  6
Continuous
 62
     7
370
    15
100
AcDbLine
 10
4.7263786991
 20
3.9496576243
 30
0.0
 11
4.6263786489
 21
3.9496576243
 31
0.0
  0
LINE
  5
10B
330
1F
100
AcDbEntity
  8
0
  6
Continuous
 62
     7
370
    15
100
AcDbLine
 10
2.7263786352
 20
5.2996576557
 30
0.0
 11
2.7263786352
 21
3.5496576072
 31
0.0
  0
LINE
  5
10C
330
1F
100
AcDbEntity
  8
0
  6
Continuous
 62
     7
370
    15
100
AcDbLine
 10
2.8263786854
 20
5.2996576557
 30
0.0
 11
2.7263786352
 21
5.2996576557
 31
0.0
  0
LINE
  5
10D
330
1F
100
AcDbEntity
  8
0
  6
Continuous
 62
     7
370
    15
100
AcDbLine
 10
2.7263786352
 20
3.5496576072
 30
0.0
 11
2.8263786854
 21
3.5496576072
 31
0.0
  0
LINE
  5
10E
330
1F
100
AcDbEntity
  8
0
  6
Continuous
 62
     7
370
    15
100
AcDbLine
 10
2.8263786854
 20
5.3496576221
 30
0.0
 11
4.6263786489
 21
5.3496576221
 31
0.0
  0
LINE
  5
10F
330
1F
100
AcDbEntity
  8
0
  6
Continuous
 62
     7
370
    15
100
AcDbLine
 10
2.8263786854
 20
5.3496576221
 30
0.0
 11
2.8263786854
 21
5.2996576557
 31
0.0
  0
LINE
  5
110
330
1F
100
AcDbEntity
  8
0
  6
Continuous
 62
     7
370
    15
100
AcDbLine
 10
2.7763786603
 20
5.3496576221
 30
0.0
 11
2.8263786854
 21
5.3496576221
 31
0.0
  0
ARC
  5
111
330
1F
100
AcDbEntity
  8
0
  6
Continuous
 62
     7
370
    15
100
AcDbCircle
 10
2.7763786671
 20
5.2996576084
 30
0.0
 40
0.0500000000000003
100
AcDbArc
 50
90.0
 51
180.0
  0
LINE
  5
112
330
1F
100
AcDbEntity
  8
0
  6
Continuous
 62
     7
370
    15
100
AcDbLine
 10
2.8263786854
 20
3.4496576084
 30
0.0
 11
2.8263786854
 21
3.5496576072
 31
0.0
  0
LINE
  5
113
330
1F
100
AcDbEntity
  8
0
  6
Continuous
 62
     7
370
    15
100
AcDbLine
 10
2.7763786603
 20
3.4496576084
 30
0.0
 11
2.7763786603
 21
3.5496576072
 31
0.0
  0
LINE
  5
114
330
1F
100
AcDbEntity
  8
0
  6
Continuous
 62
     7
370
    15
100
AcDbLine
 10
4.2644290329
 20
3.5496576072
 30
0.0
 11
4.2644290329
 21
3.4496576084
 31
0.0
  0
LINE
  5
115
330
1F
100
AcDbEntity
  8
0
  6
Continuous
 62
     7
370
    15
100
AcDbLine
 10
4.797398572
 20
3.7396576129
 30
0.0
 11
4.797398572
 21
3.6996576164
 31
0.0
  0
ARC
  5
116
330
1F
100
AcDbEntity
  8
0
  6
Continuous
 62
     7
370
    15
100
AcDbCircle
 10
4.5640705845
 20
3.7196576084
 30
0.0
 40
0.0200000000000005
100
AcDbArc
 50
90.0
 51
270.0
  0
LINE
  5
117
330
1F
100
AcDbEntity
  8
0
  6
Continuous
 62
     7
370
    15
100
AcDbLine
 10
4.5196179889
 20
3.7996576078
 30
0.0
 11
4.6085231859
 21
3.7996576078
 31
0.0
  0
LINE
  5
118
330
1F
100
AcDbEntity
  8
0
  6
Continuous
 62
     7
370
    15
100
AcDbLine
 10
4.3517463175
 20
3.6996576164
 30
0.0
 11
4.4406515145
 21
3.6996576164
 31
0.0
  0
LINE
  5
119
330
1F
100
AcDbEntity
  8
0
  6
Continuous
 62
     7
370
    15
100
AcDbLine
 10
4.3717463158
 20
3.7246575996
 30
0.0
 11
4.3717463158
 21
3.6996576164
 31
0.0
  0
LINE
  5
11A
330
1F
100
AcDbEntity
  8
0
  6
Continuous
 62
     7
370
    15
100
AcDbLine
 10
4.3717463158
 20
3.7246575996
 30
0.0
 11
4.3961989453
 21
3.7246575996
 31
0.0
  0
LINE
  5
11B
330
1F
100
AcDbEntity
  8
0
  6
Continuous
 62
     7
370
    15
100
AcDbLine
 10
4.3961989453
 20
3.7246575996
 30
0.0
 11
4.3961989453
 21
3.6996576164
 31
0.0
  0
LINE
  5
11C
330
1F
100
AcDbEntity
  8
0
  6
Continuous
 62
     7
370
    15
100
AcDbLine
 10
4.3961989453
 20
3.7246575996
 30
0.0
 11
4.4206515162
 21
3.7246575996
 31
0.0
  0
LINE
  5
11D
330
1F
100
AcDbEntity
  8
0
  6
Continuous
 62
     7
370
    15
100
AcDbLine
 10
4.4206515162
 20
3.7246575996
 30
0.0
 11
4.4206515162
 21
3.6996576164
 31
0.0
  0
LINE
  5
11E
330
1F
100
AcDbEntity
  8
0
  6
Continuous
 62
     7
370
    15
100
AcDbLine
 10
4.5398020224
 20
3.8246576204
 30
0.0
 11
4.5398020224
 21
3.7996576078
 31
0.0
  0
LINE
  5
11F
330
1F
100
AcDbEntity
  8
0
  6
Continuous
 62
     7
370
    15
100
AcDbLine
 10
4.5640705581
 20
3.8246576204
 30
0.0
 11
4.5640705581
 21
3.7996576078
 31
0.0
  0
LINE
  5
120
330
1F
100
AcDbEntity
  8
0
  6
Continuous
 62
     7
370
    15
100
AcDbLine
 10
4.5398020224
 20
3.8246576204
 30
0.0
 11
4.5640705581
 21
3.8246576204
 31
0.0
  0
LINE
  5
121
330
1F
100
AcDbEntity
  8
0
  6
Continuous
 62
     7
370
    15
100
AcDbLine
 10
4.5883391524
 20
3.8246576204
 30
0.0
 11
4.5883391524
 21
3.7996576078
 31
0.0
  0
LINE
  5
122
330
1F
100
AcDbEntity
  8
0
  6
Continuous
 62
     7
370
    15
100
AcDbLine
 10
4.5640705581
 20
3.8246576204
 30
0.0
 11
4.5883391524
 21
3.8246576204
 31
0.0
  0
LINE
  5
123
330
1F
100
AcDbEntity
  8
0
  6
Continuous
 62
     7
370
    15
100
AcDbLine
 10
3.1263786597
 20
5.4996575213
 30
0.0
 11
4.3263786746
 21
5.4996575213
 31
0.0
  0
LINE
  5
124
330
1F
100
AcDbEntity
  8
0
  6
Continuous
 62
     7
370
    15
100
AcDbLine
 10
4.676378674
 20
3.4496576084
 30
0.0
 11
4.676378674
 21
3.5496576072
 31
0.0
  0
LINE
  5
125
330
1F
100
AcDbEntity
  8
0
  6
Continuous
 62
     7
370
    15
100
AcDbLine
 10
4.7263786991
 20
3.9496576243
 30
0.0
 11
4.7263786991
 21
3.7396576129
 31
0.0
  0
LINE
  5
126
330
1F
100
AcDbEntity
  8
0
  6
Continuous
 62
     7
370
    15
100
AcDbLine
 10
4.7263786991
 20
3.6996576164
 30
0.0
 11
4.7263786991
 21
3.6546576055
 31
0.0
  0
LINE
  5
127
330
1F
100
AcDbEntity
  8
0
  6
Continuous
 62
     7
370
    15
100
AcDbLine
 10
4.7263786991
 20
3.614657609
 30
0.0
 11
4.7263786991
 21
3.5496576072
 31
0.0
  0
LINE
  5
128
330
1F
100
AcDbEntity
  8
0
  6
Continuous
 62
     7
370
    15
100
AcDbLine
 10
4.7263786991
 20
3.5496576072
 30
0.0
 11
4.676378674
 21
3.5496576072
 31
0.0
  0
LWPOLYLINE
  5
129
330
1F
100
AcDbEntity
  8
0
  6
Continuous
 62
     7
370
    15
100
AcDbPolyline
 90
       28
 70
   128
 43
0.0
 10
6.9754980184
 20
4.0738011929
 10
6.9753065326
 20
4.0744857663
 10
6.9747344219
 20
4.0765295134
 10
6.9737903688
 20
4.0799026317
 10
6.9724877492
 20
4.0845559007
 10
6.9708460401
 20
4.0904215022
 10
6.9688889427
 20
4.0974139014
 10
6.9666448513
 20
4.1054311368
 10
6.9641468535
 20
4.1143562284
 10
6.9614308529
 20
4.1240591136
 10
6.958536977
 20
4.1343982902
 10
6.9555072306
 20
4.1452229865
 10
6.9523857307
 20
4.1563753323
 10
6.949218002
 20
4.1676927056
 10
6.9460502732
 20
4.1790100202
 10
6.9429287733
 20
4.190162366
 10
6.939899027
 20
4.2009870623
 10
6.9370051511
 20
4.2113262389
 10
6.9342891504
 20
4.2210291241
 10
6.9317911526
 20
4.2299542157
 10
6.9295470612
 20
4.2379714511
 10
6.9275899638
 20
4.2449638503
 10
6.9259482548
 20
4.2508294518
 10
6.9246456352
 20
4.2554827208
 10
6.9237015821
 20
4.2588558391
 10
6.9231294713
 20
4.2608995862
 10
6.9229379856
 20
4.2615841596
 10
6.9229379856
 20
4.2615841596
  0
LINE
  5
12A
330
1F
100
AcDbEntity
  8
0
  6
Continuous
 62
     7
370
    15
100
AcDbLine
 10
4.7596876049
 20
3.6720726337
 30
0.0
 11
4.7596876049
 21
3.6996576164
 31
0.0
  0
LINE
  5
12B
330
1F
100
AcDbEntity
  8
0
  6
Continuous
 62
     7
370
    15
100
AcDbLine
 10
4.7596876049
 20
3.7396576129
 30
0.0
 11
4.7596876049
 21
3.7767426139
 31
0.0
  0
LWPOLYLINE
  5
12C
330
1F
100
AcDbEntity
  8
0
  6
Continuous
 62
     7
370
    15
100
AcDbPolyline
 90
       15
 70
   128
 43
0.0
 10
6.9754980184
 20
4.0594612892
 10
6.9753065326
 20
4.0601458626
 10
6.9747344219
 20
4.0621896097
 10
6.9737903688
 20
4.0655626694
 10
6.9724877492
 20
4.0702159383
 10
6.9708460401
 20
4.0760815985
 10
6.9688889427
 20
4.0830739391
 10
6.9666448513
 20
4.0910911745
 10
6.9641468535
 20
4.1000163247
 10
6.9614308529
 20
4.10971921
 10
6.958536977
 20
4.1200583865
 10
6.9555072306
 20
4.1308830241
 10
6.9523857307
 20
4.14203537
 10
6.949218002
 20
4.1533527432
 10
6.9473568821
 20
4.1600018291
  0
LINE
  5
12D
330
1F
100
AcDbEntity
  8
0
  6
Continuous
 62
     7
370
    15
100
AcDbLine
 10
4.7596876049
 20
3.5674026682
 30
0.0
 11
4.7596876049
 21
3.614657609
 31
0.0
  0
LINE
  5
12E
330
1F
100
AcDbEntity
  8
0
  6
Continuous
 62
     7
370
    15
100
AcDbLine
 10
4.7596876049
 20
3.6546576055
 30
0.0
 11
4.7596876049
 21
3.6720726337
 31
0.0
  0
LWPOLYLINE
  5
12F
330
1F
100
AcDbEntity
  8
0
  6
Continuous
 62
     7
370
    15
100
AcDbPolyline
 90
       38
 70
   128
 43
0.0
 10
7.080074837
 20
4.0099649703
 10
7.0798880445
 20
4.0106321786
 10
7.0793293096
 20
4.0126288169
 10
7.078402387
 20
4.0159401013
 10
7.0771145512
 20
4.0205415682
 10
7.0754749541
 20
4.0263991325
 10
7.073496033
 20
4.0334694401
 10
7.0711923369
 20
4.0417000437
 10
7.0685807617
 20
4.0510301653
 10
7.0656810192
 20
4.0613905789
 10
7.0625142292
 20
4.0727046669
 10
7.0591038579
 20
4.0848886541
 10
7.0554752491
 20
4.0978523124
 10
7.0516553893
 20
4.1114996641
 10
7.0476724379
 20
4.125729745
 10
7.0435559628
 20
4.1404370738
 10
7.0393362356
 20
4.155512825
 10
7.0350447012
 20
4.1708454158
 10
7.0307130392
 20
4.1863212691
 10
7.0263733987
 20
4.2018258099
 10
7.0220576938
 20
4.2172442878
 10
7.0177980737
 20
4.2324625387
 10
7.0136262179
 20
4.2473679238
 10
7.0095726327
 20
4.2618500339
 10
7.0056675899
 20
4.2758016274
 10
7.0019399529
 20
4.2891194522
 10
6.9984174123
 20
4.3017049495
 10
6.995125781
 20
4.3134648989
 10
6.9920896987
 20
4.3243121816
 10
6.9893314586
 20
4.3341666011
 10
6.9868714763
 20
4.3429550596
 10
6.9847282904
 20
4.3506126138
 10
6.9829173887
 20
4.3570825337
 10
6.9814521469
 20
4.3623168893
 10
6.9803438291
 20
4.3662769609
 10
6.979600179
 20
4.3689333568
 10
6.9792270633
 20
4.3702665414
 10
6.9791803652
 20
4.3704334462
  0
ARC
  5
130
330
1F
100
AcDbEntity
  8
0
  6
Continuous
 62
     7
370
    15
100
AcDbCircle
 10
6.821792338
 20
4.2717756075
 30
0.0
 40
0.0226377952755906
100
AcDbArc
 50
154.831589941
 51
201.626431741
  0
ARC
  5
131
330
1F
100
AcDbEntity
  8
0
  6
Continuous
 62
     7
370
    15
100
AcDbCircle
 10
6.821792338
 20
4.2717756075
 30
0.0
 40
0.0226377952755914
100
AcDbArc
 50
9.6472450572
 51
56.4420850531
  0
SPLINE
  5
132
330
1F
100
AcDbEntity
  8
0
  6
Continuous
 62
     7
370
    15
100
AcDbSpline
210
0.0
220
0.0
230
1.0
 70
     8
 71
     3
 72
    12
 73
     8
 74
     0
 42
0.00000001
 43
0.00000001
 12
1.0
 22
0.0
 32
0.0
 13
1.0
 23
0.0
 33
0.0
 40
0.0
 40
0.0
 40
0.0
 40
0.0
 40
0.2130412148197019
 40
0.4260723411004148
 40
0.6395815194586867
 40
0.8542030871323949
 40
1.0
 40
1.0
 40
1.0
 40
1.0
 10
6.844109904184697
 20
4.275569310049947
 30
0.0
 10
6.844068175703956
 20
4.275557593462636
 30
0.0
 10
6.843984720718522
 20
4.27553416084285
 30
0.0
 10
6.843333152678638
 20
4.275351802720668
 30
0.0
 10
6.842373086057266
 20
4.275083167448189
 30
0.0
 10
6.841298920817728
 20
4.274782517193754
 30
0.0
 10
6.840583120619722
 20
4.274582124249513
 30
0.0
 10
6.840293564271382
 20
4.274501061057117
 30
0.0
  0
SPLINE
  5
133
330
1F
100
AcDbEntity
  8
0
  6
Continuous
 62
     7
370
    15
100
AcDbSpline
210
0.0
220
0.0
230
1.0
 70
     8
 71
     3
 72
    12
 73
     8
 74
     0
 42
0.00000001
 43
0.00000001
 12
1.0
 22
0.0
 32
0.0
 13
1.0
 23
0.0
 33
0.0
 40
0.0
 40
0.0
 40
0.0
 40
0.0
 40
0.2165663787567663
 40
0.4332069135490865
 40
0.6488534714715372
 40
0.863115299337888
 40
1.0
 40
1.0
 40
1.0
 40
1.0
 10
6.804564569015784
 20
4.264500621916377
 30
0.0
 10
6.804133170211882
 20
4.264379854662207
 30
0.0
 10
6.803270224885742
 20
4.26413827880109
 30
0.0
 10
6.802121313002658
 20
4.263816766204282
 30
0.0
 10
6.801259080748687
 20
4.263575408671719
 30
0.0
 10
6.800810509916259
 20
4.263449795396139
 30
0.0
 10
6.800765528997668
 20
4.263437259639402
 30
0.0
 10
6.800747994438512
 20
4.263432372923547
 30
0.0
  0
SPLINE
  5
134
330
1F
100
AcDbEntity
  8
0
  6
Continuous
 62
     7
370
    15
100
AcDbSpline
210
0.0
220
0.0
230
1.0
 70
     8
 71
     3
 72
    11
 73
     7
 74
     0
 42
0.00000001
 43
0.00000001
 12
1.0
 22
0.0
 32
0.0
 13
1.0
 23
0.0
 33
0.0
 40
0.0
 40
0.0
 40
0.0
 40
0.0
 40
0.1661019838655699
 40
0.4819397910854757
 40
0.7977476416998468
 40
1.0
 40
1.0
 40
1.0
 40
1.0
 10
6.802367410397548
 20
4.263885626354192
 30
0.0
 10
6.802301861637591
 20
4.263646411840571
 30
0.0
 10
6.802111673929142
 20
4.262952338295899
 30
0.0
 10
6.801446933730852
 20
4.261929102090471
 30
0.0
 10
6.800457955749561
 20
4.261112547100093
 30
0.0
 10
6.799724121961319
 20
4.260837696155852
 30
0.0
 10
6.799437630909277
 20
4.260730393470378
 30
0.0
  0
SPLINE
  5
135
330
1F
100
AcDbEntity
  8
0
  6
Continuous
 62
     7
370
    15
100
AcDbSpline
210
0.0
220
0.0
230
1.0
 70
     8
 71
     3
 72
    11
 73
     7
 74
     0
 42
0.00000001
 43
0.00000001
 12
1.0
 22
0.0
 32
0.0
 13
1.0
 23
0.0
 33
0.0
 40
0.0
 40
0.0
 40
0.0
 40
0.0
 40
0.3161568980951934
 40
0.632249148573907
 40
0.9483714384307769
 40
1.0
 40
1.0
 40
1.0
 40
1.0
 10
6.846632776373596
 20
4.273940214202735
 30
0.0
 10
6.846157895237984
 20
4.273866585192266
 30
0.0
 10
6.845208230070236
 20
4.273719342226955
 30
0.0
 10
6.843799211555481
 20
4.274104547398936
 30
0.0
 10
6.842928208542886
 20
4.274671455022188
 30
0.0
 10
6.842544374681811
 20
4.275061271585308
 30
0.0
 10
6.842490488225662
 20
4.275115997953314
 30
0.0
  0
ARC
  5
136
330
1F
100
AcDbEntity
  8
0
  6
Continuous
 62
     7
370
    15
100
AcDbCircle
 10
6.8005963508
 20
4.2568178697
 30
0.0
 40
0.0040804992654773
100
AcDbArc
 50
106.4970048417
 51
195.1948573911
  0
LINE
  5
137
330
1F
100
AcDbEntity
  8
0
  6
Continuous
 62
     7
370
    15
100
AcDbLine
 10
6.7966585057
 20
4.2557483604
 30
0.0
 11
6.7987474842
 21
4.2482846386
 31
0.0
  0
ARC
  5
138
330
1F
100
AcDbEntity
  8
0
  6
Continuous
 62
     7
370
    15
100
AcDbCircle
 10
6.802669912
 20
4.2494164143
 30
0.0
 40
0.0040824448847757
100
AcDbArc
 50
196.0949444913
 51
286.0844972633
  0
LINE
  5
139
330
1F
100
AcDbEntity
  8
0
  6
Continuous
 62
     7
370
    15
100
AcDbLine
 10
6.8039931623
 20
4.2455475182
 30
0.0
 11
6.8038009725
 21
4.2454937802
 31
0.0
  0
ARC
  5
13A
330
1F
100
AcDbEntity
  8
0
  6
Continuous
 62
     7
370
    15
100
AcDbCircle
 10
6.8497749857
 20
4.2625857057
 30
0.0
 40
0.0040537514479626
100
AcDbArc
 50
304.6419714365
 51
15.3839831784
  0
LINE
  5
13B
330
1F
100
AcDbEntity
  8
0
  6
Continuous
 62
     7
370
    15
100
AcDbLine
 10
6.8515942764
 20
4.2711247747
 30
0.0
 11
6.8536834896
 21
4.2636611116
 31
0.0
  0
ARC
  5
13C
330
1F
100
AcDbEntity
  8
0
  6
Continuous
 62
     7
370
    15
100
AcDbCircle
 10
6.8476735188
 20
4.2699948453
 30
0.0
 40
0.0040803284906762
100
AcDbArc
 50
16.0765374246
 51
104.777341492
  0
SPLINE
  5
13D
330
1F
100
AcDbEntity
  8
0
  6
Continuous
 62
     7
370
    15
100
AcDbSpline
210
0.0
220
0.0
230
1.0
 70
     8
 71
     3
 72
    12
 73
     8
 74
     0
 42
0.00000001
 43
0.00000001
 12
1.0
 22
0.0
 32
0.0
 13
1.0
 23
0.0
 33
0.0
 40
0.0
 40
0.0
 40
0.0
 40
0.0
 40
0.2154995978854458
 40
0.4310294832688771
 40
0.646563463249748
 40
0.8620418369773818
 40
1.0
 40
1.0
 40
1.0
 40
1.0
 10
6.846077796118109
 20
4.276118306374562
 30
0.0
 10
6.845858101624666
 20
4.276084291731181
 30
0.0
 10
6.84541868176071
 20
4.276016257663818
 30
0.0
 10
6.844764639727331
 20
4.276193878573069
 30
0.0
 10
6.844211824044283
 20
4.27656009575251
 30
0.0
 10
6.843851541803414
 20
4.277026653762784
 30
0.0
 10
6.843738961995033
 20
4.277365257874134
 30
0.0
 10
6.843695018310828
 20
4.277497426442849
 30
0.0
  0
ARC
  5
13E
330
1F
100
AcDbEntity
  8
0
  6
Continuous
 62
     7
370
    15
100
AcDbCircle
 10
6.847696212
 20
4.2699828315
 30
0.0
 40
0.0063453386222538
100
AcDbArc
 50
16.0794325232
 51
104.7768956876
  0
LINE
  5
13F
330
1F
100
AcDbEntity
  8
0
  6
Continuous
 62
     7
370
    15
100
AcDbLine
 10
6.8537933123
 20
4.2717402983
 30
0.0
 11
6.8558822909
 21
4.2642765765
 31
0.0
  0
ARC
  5
140
330
1F
100
AcDbEntity
  8
0
  6
Continuous
 62
     7
370
    15
100
AcDbCircle
 10
6.8497928078
 20
4.2626043897
 30
0.0
 40
0.00631490403074
100
AcDbArc
 50
297.4974930293
 51
15.3550708736
  0
LINE
  5
141
330
1F
100
AcDbEntity
  8
0
  6
Continuous
 62
     7
370
    15
100
AcDbLine
 10
6.80459883
 20
4.2433830365
 30
0.0
 11
6.8044068748
 21
4.2433292985
 31
0.0
  0
ARC
  5
142
330
1F
100
AcDbEntity
  8
0
  6
Continuous
 62
     7
370
    15
100
AcDbCircle
 10
6.8026478834
 20
4.2494286581
 30
0.0
 40
0.0063479318163482
100
AcDbArc
 50
196.0921893186
 51
286.0870070493
  0
LINE
  5
143
330
1F
100
AcDbEntity
  8
0
  6
Continuous
 62
     7
370
    15
100
AcDbLine
 10
6.7944594698
 20
4.2551328368
 30
0.0
 11
6.7965486829
 21
4.247669115
 31
0.0
  0
ARC
  5
144
330
1F
100
AcDbEntity
  8
0
  6
Continuous
 62
     7
370
    15
100
AcDbCircle
 10
6.8005831187
 20
4.2567958462
 30
0.0
 40
0.0063454453475727
100
AcDbArc
 50
106.4966007084
 51
195.1934715253
  0
SPLINE
  5
145
330
1F
100
AcDbEntity
  8
0
  6
Continuous
 62
     7
370
    15
100
AcDbSpline
210
0.0
220
0.0
230
1.0
 70
     8
 71
     3
 72
    12
 73
     8
 74
     0
 42
0.00000001
 43
0.00000001
 12
1.0
 22
0.0
 32
0.0
 13
1.0
 23
0.0
 33
0.0
 40
0.0
 40
0.0
 40
0.0
 40
0.0
 40
0.2155012309465742
 40
0.431019525494318
 40
0.6465226547271963
 40
0.8620465358251119
 40
1.0
 40
1.0
 40
1.0
 40
1.0
 10
6.800101729904216
 20
4.265295722064645
 30
0.0
 10
6.800143207306983
 20
4.26508079205407
 30
0.0
 10
6.800226165396738
 20
4.264650915014546
 30
0.0
 10
6.80006721512352
 20
4.263997610466222
 30
0.0
 10
6.799714104679952
 20
4.26343488896643
 30
0.0
 10
6.799253144019887
 20
4.26305702966985
 30
0.0
 10
6.798913737711445
 20
4.262929761084337
 30
0.0
 10
6.79878127582488
 20
4.262880091303551
 30
0.0
  0
SPLINE
  5
146
330
1F
100
AcDbEntity
  8
0
  6
Continuous
 62
     7
370
    15
100
AcDbSpline
210
0.0
220
0.0
230
1.0
 70
     8
 71
     3
 72
     9
 73
     5
 74
     0
 42
0.00000001
 43
0.00000001
 12
1.0
 22
0.0
 32
0.0
 13
1.0
 23
0.0
 33
0.0
 40
0.0
 40
0.0
 40
0.0
 40
0.0
 40
0.2071347126537688
 40
1.0
 40
1.0
 40
1.0
 40
1.0
 10
6.799623719426233
 20
4.267190574841812
 30
0.0
 10
6.799621265499339
 20
4.26719857729215
 30
0.0
 10
6.799609418489906
 20
4.267237211330045
 30
0.0
 10
6.799884013250473
 20
4.266154313870262
 30
0.0
 10
6.800101729904216
 20
4.265295722064645
 30
0.0
  0
LWPOLYLINE
  5
147
330
1F
100
AcDbEntity
  8
0
  6
Continuous
 62
     7
370
    15
100
AcDbPolyline
 90
        5
 70
   128
 43
0.0
 10
6.7944594698
 20
4.2551328368
 10
6.7941931262
 20
4.2560843991
 10
6.794002579
 20
4.2567653939
 10
6.793888063
 20
4.2571745892
 10
6.7938498128
 20
4.2573110463
  0
LWPOLYLINE
  5
148
330
1F
100
AcDbEntity
  8
0
  6
Continuous
 62
     7
370
    15
100
AcDbPolyline
 90
        5
 70
   128
 43
0.0
 10
6.8531836554
 20
4.2739184491
 10
6.8532219056
 20
4.273781992
 10
6.8533364216
 20
4.2733728554
 10
6.8535269687
 20
4.272691802
 10
6.8537933123
 20
4.2717402983
  0
LINE
  5
149
330
1F
100
AcDbEntity
  8
0
  6
Continuous
 62
     7
370
    15
100
AcDbLine
 10
6.801798585
 20
4.2811877518
 30
0.0
 11
6.8028372076
 21
4.2809218189
 31
0.0
  0
LINE
  5
14A
330
1F
100
AcDbEntity
  8
0
  6
Continuous
 62
     7
370
    15
100
AcDbLine
 10
6.8150969913
 20
4.2947849441
 30
0.0
 11
6.801798585
 21
4.2811877518
 31
0.0
  0
LINE
  5
14B
330
1F
100
AcDbEntity
  8
0
  6
Continuous
 62
     7
370
    15
100
AcDbLine
 10
6.8153858627
 20
4.29375254
 30
0.0
 11
6.8150969913
 21
4.2947849441
 31
0.0
  0
LINE
  5
14C
330
1F
100
AcDbEntity
  8
0
  6
Continuous
 62
     7
370
    15
100
AcDbLine
 10
6.8153858627
 20
4.29375254
 30
0.0
 11
6.8028372076
 21
4.2809218189
 31
0.0
  0
LINE
  5
14D
330
1F
100
AcDbEntity
  8
0
  6
Continuous
 62
     7
370
    15
100
AcDbLine
 10
6.8150969913
 20
4.2947849441
 30
0.0
 11
6.8155700739
 21
4.2949174119
 31
0.0
  0
LINE
  5
14E
330
1F
100
AcDbEntity
  8
0
  6
Continuous
 62
     7
370
    15
100
AcDbLine
 10
6.8155700739
 20
4.2949174119
 30
0.0
 11
6.8158591799
 21
4.2938850078
 31
0.0
  0
LINE
  5
14F
330
1F
100
AcDbEntity
  8
0
  6
Continuous
 62
     7
370
    15
100
AcDbLine
 10
6.8158591799
 20
4.2938850078
 30
0.0
 11
6.8153858627
 21
4.29375254
 31
0.0
  0
LINE
  5
150
330
1F
100
AcDbEntity
  8
0
  6
Continuous
 62
     7
370
    15
100
AcDbLine
 10
6.8332451977
 20
4.2894329046
 30
0.0
 11
6.8339947144
 21
4.2901994344
 31
0.0
  0
LINE
  5
151
330
1F
100
AcDbEntity
  8
0
  6
Continuous
 62
     7
370
    15
100
AcDbLine
 10
6.8339947144
 20
4.2901994344
 30
0.0
 11
6.834346241
 21
4.289855769
 31
0.0
  0
LINE
  5
152
330
1F
100
AcDbEntity
  8
0
  6
Continuous
 62
     7
370
    15
100
AcDbLine
 10
6.834346241
 20
4.289855769
 30
0.0
 11
6.8335964896
 21
4.2890892979
 31
0.0
  0
LINE
  5
153
330
1F
100
AcDbEntity
  8
0
  6
Continuous
 62
     7
370
    15
100
AcDbLine
 10
6.8335964896
 20
4.2890892979
 30
0.0
 11
6.8332451977
 21
4.2894329046
 31
0.0
  0
LINE
  5
154
330
1F
100
AcDbEntity
  8
0
  6
Continuous
 62
     7
370
    15
100
AcDbLine
 10
6.8257634068
 20
4.2584997366
 30
0.0
 11
6.8260522781
 21
4.2574672738
 31
0.0
  0
LINE
  5
155
330
1F
100
AcDbEntity
  8
0
  6
Continuous
 62
     7
370
    15
100
AcDbLine
 10
6.8257634068
 20
4.2584997366
 30
0.0
 11
6.8383120618
 21
4.2713304577
 31
0.0
  0
LINE
  5
156
330
1F
100
AcDbEntity
  8
0
  6
Continuous
 62
     7
370
    15
100
AcDbLine
 10
6.8393506845
 20
4.2710644661
 30
0.0
 11
6.8383120618
 21
4.2713304577
 31
0.0
  0
LINE
  5
157
330
1F
100
AcDbEntity
  8
0
  6
Continuous
 62
     7
370
    15
100
AcDbLine
 10
6.8260522781
 20
4.2574672738
 30
0.0
 11
6.8393506845
 21
4.2710644661
 31
0.0
  0
LINE
  5
158
330
1F
100
AcDbEntity
  8
0
  6
Continuous
 62
     7
370
    15
100
AcDbLine
 10
6.8384338524
 20
4.2718065322
 30
0.0
 11
6.8394724751
 21
4.2715405406
 31
0.0
  0
LINE
  5
159
330
1F
100
AcDbEntity
  8
0
  6
Continuous
 62
     7
370
    15
100
AcDbLine
 10
6.8394724751
 20
4.2715405406
 30
0.0
 11
6.8393506845
 21
4.2710644661
 31
0.0
  0
LINE
  5
15A
330
1F
100
AcDbEntity
  8
0
  6
Continuous
 62
     7
370
    15
100
AcDbLine
 10
6.8383120618
 20
4.2713304577
 30
0.0
 11
6.8384338524
 21
4.2718065322
 31
0.0
  0
LINE
  5
15B
330
1F
100
AcDbEntity
  8
0
  6
Continuous
 62
     7
370
    15
100
AcDbLine
 10
6.8339947144
 20
4.2901994344
 30
0.0
 11
6.8155700739
 21
4.2949174119
 31
0.0
  0
LINE
  5
15C
330
1F
100
AcDbEntity
  8
0
  6
Continuous
 62
     7
370
    15
100
AcDbLine
 10
6.8332451977
 20
4.2894329046
 30
0.0
 11
6.8158591799
 21
4.2938850078
 31
0.0
  0
LINE
  5
15D
330
1F
100
AcDbEntity
  8
0
  6
Continuous
 62
     7
370
    15
100
AcDbLine
 10
6.8255791956
 20
4.257334806
 30
0.0
 11
6.8252900896
 21
4.2583672688
 31
0.0
  0
LINE
  5
15E
330
1F
100
AcDbEntity
  8
0
  6
Continuous
 62
     7
370
    15
100
AcDbLine
 10
6.8071545551
 20
4.2620528422
 30
0.0
 11
6.8255791956
 21
4.257334806
 31
0.0
  0
LINE
  5
15F
330
1F
100
AcDbEntity
  8
0
  6
Continuous
 62
     7
370
    15
100
AcDbLine
 10
6.8079040718
 20
4.2628193133
 30
0.0
 11
6.8071545551
 21
4.2620528422
 31
0.0
  0
LINE
  5
160
330
1F
100
AcDbEntity
  8
0
  6
Continuous
 62
     7
370
    15
100
AcDbLine
 10
6.8079040718
 20
4.2628193133
 30
0.0
 11
6.8252900896
 21
4.2583672688
 31
0.0
  0
LINE
  5
161
330
1F
100
AcDbEntity
  8
0
  6
Continuous
 62
     7
370
    15
100
AcDbLine
 10
6.8260522781
 20
4.2574672738
 30
0.0
 11
6.8255791956
 21
4.257334806
 31
0.0
  0
LINE
  5
162
330
1F
100
AcDbEntity
  8
0
  6
Continuous
 62
     7
370
    15
100
AcDbLine
 10
6.8252900896
 20
4.2583672688
 30
0.0
 11
6.8257634068
 21
4.2584997366
 31
0.0
  0
LINE
  5
163
330
1F
100
AcDbEntity
  8
0
  6
Continuous
 62
     7
370
    15
100
AcDbLine
 10
6.802715417
 20
4.2804457444
 30
0.0
 11
6.8016767944
 21
4.2807116773
 31
0.0
  0
LINE
  5
164
330
1F
100
AcDbEntity
  8
0
  6
Continuous
 62
     7
370
    15
100
AcDbLine
 10
6.802715417
 20
4.2804457444
 30
0.0
 11
6.8043381183
 21
4.2746477847
 31
0.0
  0
LINE
  5
165
330
1F
100
AcDbEntity
  8
0
  6
Continuous
 62
     7
370
    15
100
AcDbLine
 10
6.8039159578
 20
4.2745296314
 30
0.0
 11
6.8043381183
 21
4.2746477847
 31
0.0
  0
LINE
  5
166
330
1F
100
AcDbEntity
  8
0
  6
Continuous
 62
     7
370
    15
100
AcDbLine
 10
6.8040236686
 20
4.2740487463
 30
0.0
 11
6.8039159578
 21
4.2745296314
 31
0.0
  0
LINE
  5
167
330
1F
100
AcDbEntity
  8
0
  6
Continuous
 62
     7
370
    15
100
AcDbLine
 10
6.8040236686
 20
4.2740487463
 30
0.0
 11
6.8053502239
 21
4.269309649
 31
0.0
  0
LINE
  5
168
330
1F
100
AcDbEntity
  8
0
  6
Continuous
 62
     7
370
    15
100
AcDbLine
 10
6.8055076835
 20
4.2688426678
 30
0.0
 11
6.8053502239
 21
4.269309649
 31
0.0
  0
LINE
  5
169
330
1F
100
AcDbEntity
  8
0
  6
Continuous
 62
     7
370
    15
100
AcDbLine
 10
6.8059298439
 20
4.2689608797
 30
0.0
 11
6.8055076835
 21
4.2688426678
 31
0.0
  0
LINE
  5
16A
330
1F
100
AcDbEntity
  8
0
  6
Continuous
 62
     7
370
    15
100
AcDbLine
 10
6.8059298439
 20
4.2689608797
 30
0.0
 11
6.8075527798
 21
4.26316292
 31
0.0
  0
LINE
  5
16B
330
1F
100
AcDbEntity
  8
0
  6
Continuous
 62
     7
370
    15
100
AcDbLine
 10
6.8068030285
 20
4.2623964489
 30
0.0
 11
6.8075527798
 21
4.26316292
 31
0.0
  0
LINE
  5
16C
330
1F
100
AcDbEntity
  8
0
  6
Continuous
 62
     7
370
    15
100
AcDbLine
 10
6.8016767944
 20
4.2807116773
 30
0.0
 11
6.8068030285
 21
4.2623964489
 31
0.0
  0
LINE
  5
16D
330
1F
100
AcDbEntity
  8
0
  6
Continuous
 62
     7
370
    15
100
AcDbLine
 10
6.8352194256
 20
4.2832913968
 30
0.0
 11
6.8342716178
 21
4.2830261092
 31
0.0
  0
LINE
  5
16E
330
1F
100
AcDbEntity
  8
0
  6
Continuous
 62
     7
370
    15
100
AcDbLine
 10
6.832725417
 20
4.2885500401
 30
0.0
 11
6.8158906248
 21
4.2928609343
 31
0.0
  0
LINE
  5
16F
330
1F
100
AcDbEntity
  8
0
  6
Continuous
 62
     7
370
    15
100
AcDbLine
 10
6.805285926
 20
4.2749130723
 30
0.0
 11
6.8043381183
 21
4.2746477847
 31
0.0
  0
LINE
  5
170
330
1F
100
AcDbEntity
  8
0
  6
Continuous
 62
     7
370
    15
100
AcDbLine
 10
6.8028372076
 20
4.2809218189
 30
0.0
 11
6.802715417
 21
4.2804457444
 31
0.0
  0
LINE
  5
171
330
1F
100
AcDbEntity
  8
0
  6
Continuous
 62
     7
370
    15
100
AcDbLine
 10
6.8352194256
 20
4.2832913968
 30
0.0
 11
6.8335964896
 21
4.2890892979
 31
0.0
  0
LINE
  5
172
330
1F
100
AcDbEntity
  8
0
  6
Continuous
 62
     7
370
    15
100
AcDbLine
 10
6.8037399599
 20
4.2804370032
 30
0.0
 11
6.805285926
 21
4.2749130723
 31
0.0
  0
LINE
  5
173
330
1F
100
AcDbEntity
  8
0
  6
Continuous
 62
     7
370
    15
100
AcDbLine
 10
6.8342716178
 20
4.2830261092
 30
0.0
 11
6.832725417
 21
4.2885500401
 31
0.0
  0
LINE
  5
174
330
1F
100
AcDbEntity
  8
0
  6
Continuous
 62
     7
370
    15
100
AcDbLine
 10
6.8158906248
 20
4.2928609343
 30
0.0
 11
6.8037399599
 21
4.2804370032
 31
0.0
  0
LINE
  5
175
330
1F
100
AcDbEntity
  8
0
  6
Continuous
 62
     7
370
    15
100
AcDbLine
 10
6.8372333116
 20
4.2777226452
 30
0.0
 11
6.8368111512
 21
4.2776044332
 31
0.0
  0
LINE
  5
176
330
1F
100
AcDbEntity
  8
0
  6
Continuous
 62
     7
370
    15
100
AcDbLine
 10
6.8371256009
 20
4.2782034716
 30
0.0
 11
6.8372333116
 21
4.2777226452
 31
0.0
  0
LINE
  5
177
330
1F
100
AcDbEntity
  8
0
  6
Continuous
 62
     7
370
    15
100
AcDbLine
 10
6.8371256009
 20
4.2782034716
 30
0.0
 11
6.8357990455
 21
4.2829426275
 31
0.0
  0
LINE
  5
178
330
1F
100
AcDbEntity
  8
0
  6
Continuous
 62
     7
370
    15
100
AcDbLine
 10
6.835641586
 20
4.2834095501
 30
0.0
 11
6.8357990455
 21
4.2829426275
 31
0.0
  0
LINE
  5
179
330
1F
100
AcDbEntity
  8
0
  6
Continuous
 62
     7
370
    15
100
AcDbLine
 10
6.8352194256
 20
4.2832913968
 30
0.0
 11
6.835641586
 21
4.2834095501
 31
0.0
  0
LINE
  5
17A
330
1F
100
AcDbEntity
  8
0
  6
Continuous
 62
     7
370
    15
100
AcDbLine
 10
6.8394724751
 20
4.2715405406
 30
0.0
 11
6.834346241
 21
4.289855769
 31
0.0
  0
LINE
  5
17B
330
1F
100
AcDbEntity
  8
0
  6
Continuous
 62
     7
370
    15
100
AcDbLine
 10
6.8384338524
 20
4.2718065322
 30
0.0
 11
6.8368111512
 21
4.2776044332
 31
0.0
  0
LINE
  5
17C
330
1F
100
AcDbEntity
  8
0
  6
Continuous
 62
     7
370
    15
100
AcDbLine
 10
6.8016767944
 20
4.2807116773
 30
0.0
 11
6.801798585
 21
4.2811877518
 31
0.0
  0
LINE
  5
17D
330
1F
100
AcDbEntity
  8
0
  6
Continuous
 62
     7
370
    15
100
AcDbLine
 10
6.8075527798
 20
4.26316292
 30
0.0
 11
6.8079040718
 21
4.2628193133
 31
0.0
  0
LINE
  5
17E
330
1F
100
AcDbEntity
  8
0
  6
Continuous
 62
     7
370
    15
100
AcDbLine
 10
6.8059298439
 20
4.2689608797
 30
0.0
 11
6.8068776516
 21
4.2692261673
 31
0.0
  0
LINE
  5
17F
330
1F
100
AcDbEntity
  8
0
  6
Continuous
 62
     7
370
    15
100
AcDbLine
 10
6.8358633434
 20
4.2773391456
 30
0.0
 11
6.8368111512
 21
4.2776044332
 31
0.0
  0
LINE
  5
180
330
1F
100
AcDbEntity
  8
0
  6
Continuous
 62
     7
370
    15
100
AcDbLine
 10
6.8252586446
 20
4.2593912836
 30
0.0
 11
6.8374095443
 21
4.2718152148
 31
0.0
  0
LINE
  5
181
330
1F
100
AcDbEntity
  8
0
  6
Continuous
 62
     7
370
    15
100
AcDbLine
 10
6.8068776516
 20
4.2692261673
 30
0.0
 11
6.8084238524
 21
4.2637022365
 31
0.0
  0
LINE
  5
182
330
1F
100
AcDbEntity
  8
0
  6
Continuous
 62
     7
370
    15
100
AcDbLine
 10
6.8084238524
 20
4.2637022365
 30
0.0
 11
6.8252586446
 21
4.2593912836
 31
0.0
  0
LINE
  5
183
330
1F
100
AcDbEntity
  8
0
  6
Continuous
 62
     7
370
    15
100
AcDbLine
 10
6.8374095443
 20
4.2718152148
 30
0.0
 11
6.8358633434
 21
4.2773391456
 31
0.0
  0
LINE
  5
184
330
1F
100
AcDbEntity
  8
0
  6
Continuous
 62
     7
370
    15
100
AcDbLine
 10
6.8071545551
 20
4.2620528422
 30
0.0
 11
6.8068030285
 21
4.2623964489
 31
0.0
  0
LINE
  5
185
330
1F
100
AcDbEntity
  8
0
  6
Continuous
 62
     7
370
    15
100
AcDbLine
 10
6.8359959286
 20
4.2768652417
 30
0.0
 11
6.8070104714
 21
4.2687522635
 31
0.0
  0
LINE
  5
186
330
1F
100
AcDbEntity
  8
0
  6
Continuous
 62
     7
370
    15
100
AcDbLine
 10
6.8068776516
 20
4.2692261673
 30
0.0
 11
6.8358633434
 21
4.2773391456
 31
0.0
  0
LINE
  5
187
330
1F
100
AcDbEntity
  8
0
  6
Continuous
 62
     7
370
    15
100
AcDbLine
 10
6.8051533409
 20
4.2753870348
 30
0.0
 11
6.834138798
 21
4.2835000131
 31
0.0
  0
LINE
  5
188
330
1F
100
AcDbEntity
  8
0
  6
Continuous
 62
     7
370
    15
100
AcDbLine
 10
6.8342716178
 20
4.2830261092
 30
0.0
 11
6.805285926
 21
4.2749130723
 31
0.0
  0
LINE
  5
189
330
1F
100
AcDbEntity
  8
0
  6
Continuous
 62
     7
370
    15
100
AcDbLine
 10
6.8053502239
 20
4.269309649
 30
0.0
 11
6.8371256009
 21
4.2782034716
 31
0.0
  0
LINE
  5
18A
330
1F
100
AcDbEntity
  8
0
  6
Continuous
 62
     7
370
    15
100
AcDbLine
 10
6.8357990455
 20
4.2829426275
 30
0.0
 11
6.8040236686
 21
4.2740487463
 31
0.0
  0
CIRCLE
  5
18B
330
1F
100
AcDbEntity
  8
0
  6
Continuous
 62
     7
370
    15
100
AcDbCircle
 10
6.820574637
 20
4.2761261209
 30
0.0
 40
0.0199803149606302
  0
LINE
  5
18C
330
1F
100
AcDbEntity
  8
0
  6
Continuous
 62
     7
370
    15
100
AcDbLine
 10
7.1228787158
 20
4.6094693088
 30
0.0
 11
7.1228787158
 21
4.6122193357
 31
0.0
  0
LINE
  5
18D
330
1F
100
AcDbEntity
  8
0
  6
Continuous
 62
     7
370
    15
100
AcDbLine
 10
7.1228787158
 20
4.6253443254
 30
0.0
 11
7.1228787158
 21
4.6294693658
 31
0.0
  0
LINE
  5
18E
330
1F
100
AcDbEntity
  8
0
  6
Continuous
 62
     7
370
    15
100
AcDbLine
 10
7.1228787158
 20
4.5894693692
 30
0.0
 11
7.1228787158
 21
4.5935944095
 31
0.0
  0
LINE
  5
18F
330
1F
100
AcDbEntity
  8
0
  6
Continuous
 62
     7
370
    15
100
AcDbLine
 10
7.1228787158
 20
4.6067193992
 30
0.0
 11
7.1228787158
 21
4.6094693088
 31
0.0
  0
LINE
  5
190
330
1F
100
AcDbEntity
  8
0
  6
Continuous
 62
     7
370
    15
100
AcDbLine
 10
7.1103786362
 20
4.6253443254
 30
0.0
 11
7.120378606
 21
4.6253443254
 31
0.0
  0
LINE
  5
191
330
1F
100
AcDbEntity
  8
0
  6
Continuous
 62
     7
370
    15
100
AcDbLine
 10
7.1148785522
 20
4.6094693088
 30
0.0
 11
7.1228787158
 21
4.6094693088
 31
0.0
  0
LINE
  5
192
330
1F
100
AcDbEntity
  8
0
  6
Continuous
 62
     7
370
    15
100
AcDbLine
 10
7.1148785522
 20
4.6094693088
 30
0.0
 11
7.1148785522
 21
4.6122193357
 31
0.0
  0
LINE
  5
193
330
1F
100
AcDbEntity
  8
0
  6
Continuous
 62
     7
370
    15
100
AcDbLine
 10
7.1103786362
 20
4.6122193357
 30
0.0
 11
7.1148785522
 21
4.6122193357
 31
0.0
  0
LINE
  5
194
330
1F
100
AcDbEntity
  8
0
  6
Continuous
 62
     7
370
    15
100
AcDbLine
 10
7.1103786362
 20
4.6122193357
 30
0.0
 11
7.1103786362
 21
4.6253443254
 31
0.0
  0
LINE
  5
195
330
1F
100
AcDbEntity
  8
0
  6
Continuous
 62
     7
370
    15
100
AcDbLine
 10
7.1103786362
 20
4.5935944095
 30
0.0
 11
7.120378606
 21
4.5935944095
 31
0.0
  0
LINE
  5
196
330
1F
100
AcDbEntity
  8
0
  6
Continuous
 62
     7
370
    15
100
AcDbLine
 10
7.1103786362
 20
4.5935944095
 30
0.0
 11
7.1103786362
 21
4.6067193992
 31
0.0
  0
LINE
  5
197
330
1F
100
AcDbEntity
  8
0
  6
Continuous
 62
     7
370
    15
100
AcDbLine
 10
7.1148785522
 20
4.6067193992
 30
0.0
 11
7.1103786362
 21
4.6067193992
 31
0.0
  0
LINE
  5
198
330
1F
100
AcDbEntity
  8
0
  6
Continuous
 62
     7
370
    15
100
AcDbLine
 10
7.1148785522
 20
4.6067193992
 30
0.0
 11
7.1148785522
 21
4.6094693088
 31
0.0
  0
LINE
  5
199
330
1F
100
AcDbEntity
  8
0
  6
Continuous
 62
     7
370
    15
100
AcDbLine
 10
7.216178758
 20
3.7632497297
 30
0.0
 11
7.2281787687
 21
3.7632497297
 31
0.0
  0
LINE
  5
19A
330
1F
100
AcDbEntity
  8
0
  6
Continuous
 62
     7
370
    15
100
AcDbLine
 10
7.2281787687
 20
3.7632497297
 30
0.0
 11
7.2281787687
 21
3.7432497315
 31
0.0
  0
LINE
  5
19B
330
1F
100
AcDbEntity
  8
0
  6
Continuous
 62
     7
370
    15
100
AcDbLine
 10
7.2281787687
 20
3.7432497315
 30
0.0
 11
7.216178758
 21
3.7432497315
 31
0.0
  0
LINE
  5
19C
330
1F
100
AcDbEntity
  8
0
  6
Continuous
 62
     7
370
    15
100
AcDbLine
 10
7.216178758
 20
3.7432497315
 30
0.0
 11
7.216178758
 21
3.7632497297
 31
0.0
  0
LINE
  5
19D
330
1F
100
AcDbEntity
  8
0
  6
Continuous
 62
     7
370
    15
100
AcDbLine
 10
7.2281787687
 20
4.7194145347
 30
0.0
 11
7.216178758
 21
4.7194145347
 31
0.0
  0
LINE
  5
19E
330
1F
100
AcDbEntity
  8
0
  6
Continuous
 62
     7
370
    15
100
AcDbLine
 10
7.2281787687
 20
3.7632497297
 30
0.0
 11
7.2281787687
 21
4.7194145347
 31
0.0
  0
LINE
  5
19F
330
1F
100
AcDbEntity
  8
0
  6
Continuous
 62
     7
370
    15
100
AcDbLine
 10
7.216178758
 20
4.7194145347
 30
0.0
 11
7.216178758
 21
3.7632497297
 31
0.0
  0
LINE
  5
1A0
330
1F
100
AcDbEntity
  8
0
  6
Continuous
 62
     7
370
    15
100
AcDbLine
 10
7.216178758
 20
4.7394144743
 30
0.0
 11
7.2281787687
 21
4.7394144743
 31
0.0
  0
LINE
  5
1A1
330
1F
100
AcDbEntity
  8
0
  6
Continuous
 62
     7
370
    15
100
AcDbLine
 10
7.2281787687
 20
4.7394144743
 30
0.0
 11
7.2281787687
 21
4.7194145347
 31
0.0
  0
LINE
  5
1A2
330
1F
100
AcDbEntity
  8
0
  6
Continuous
 62
     7
370
    15
100
AcDbLine
 10
7.216178758
 20
4.7194145347
 30
0.0
 11
7.216178758
 21
4.7394144743
 31
0.0
  0
LINE
  5
1A3
330
1F
100
AcDbEntity
  8
0
  6
Continuous
 62
     7
370
    15
100
AcDbLine
 10
7.1453318324
 20
3.8425641522
 30
0.0
 11
7.216178758
 21
3.8388512404
 31
0.0
  0
LINE
  5
1A4
330
1F
100
AcDbEntity
  8
0
  6
Continuous
 62
     7
370
    15
100
AcDbLine
 10
7.216178758
 20
3.8188786391
 30
0.0
 11
7.1453318324
 21
3.8225915509
 31
0.0
  0
ARC
  5
1A5
330
1F
100
AcDbEntity
  8
0
  6
Continuous
 62
     7
370
    15
100
AcDbCircle
 10
7.2410632277
 20
3.8325778515
 30
0.0
 40
0.0962508506220105
100
AcDbArc
 50
174.0446819831
 51
185.9553180169
  0
LINE
  5
1A6
330
1F
100
AcDbEntity
  8
0
  6
Continuous
 62
     7
370
    15
100
AcDbLine
 10
7.216178758
 20
4.6438129654
 30
0.0
 11
7.1453318324
 21
4.6401001123
 31
0.0
  0
ARC
  5
1A7
330
1F
100
AcDbEntity
  8
0
  6
Continuous
 62
     7
370
    15
100
AcDbCircle
 10
7.2410633211
 20
4.6500864129
 30
0.0
 40
0.0962509434519797
100
AcDbArc
 50
174.0446877476
 51
185.9553122524
  0
LINE
  5
1A8
330
1F
100
AcDbEntity
  8
0
  6
Continuous
 62
     7
370
    15
100
AcDbLine
 10
7.1453318324
 20
4.6600727136
 30
0.0
 11
7.216178758
 21
4.6637855667
 31
0.0
  0
LINE
  5
1A9
330
1F
100
AcDbEntity
  8
0
  6
Continuous
 62
     7
370
    15
100
AcDbLine
 10
7.1453318324
 20
3.903003526
 30
0.0
 11
7.1453318324
 21
3.8425641522
 31
0.0
  0
ARC
  5
1AA
330
1F
100
AcDbEntity
  8
0
  6
Continuous
 62
     7
370
    15
100
AcDbCircle
 10
7.105331948
 20
3.903003532
 30
0.0
 40
0.04
100
AcDbArc
 50
0.0
 51
15.6368383991
  0
LINE
  5
1AB
330
1F
100
AcDbEntity
  8
0
  6
Continuous
 62
     7
370
    15
100
AcDbLine
 10
6.9870526369
 20
4.4739849006
 30
0.0
 11
7.1438515722
 21
3.9137851027
 31
0.0
  0
LINE
  5
1AC
330
1F
100
AcDbEntity
  8
0
  6
Continuous
 62
     7
370
    15
100
AcDbLine
 10
7.1453318324
 20
4.5653675036
 30
0.0
 11
6.9870526369
 21
4.4739849006
 31
0.0
  0
LINE
  5
1AD
330
1F
100
AcDbEntity
  8
0
  6
Continuous
 62
     7
370
    15
100
AcDbLine
 10
7.1453318324
 20
4.6401001123
 30
0.0
 11
7.1453318324
 21
4.5653675036
 31
0.0
  0
ARC
  5
1AE
330
1F
100
AcDbEntity
  8
0
  6
Continuous
 62
     7
370
    15
100
AcDbCircle
 10
7.1463786671
 20
4.6401000772
 30
0.0
 40
0.0200000000000005
100
AcDbArc
 50
93.0
 51
180.0
  0
LINE
  5
1AF
330
1F
100
AcDbEntity
  8
0
  6
Continuous
 62
     7
370
    15
100
AcDbLine
 10
7.1263787287
 20
4.6401001123
 30
0.0
 11
7.1453318324
 21
4.6401001123
 31
0.0
  0
LINE
  5
1B0
330
1F
100
AcDbEntity
  8
0
  6
Continuous
 62
     7
370
    15
100
AcDbLine
 10
7.1263787287
 20
3.8425641522
 30
0.0
 11
7.1453318324
 21
3.8425641522
 31
0.0
  0
ARC
  5
1B1
330
1F
100
AcDbEntity
  8
0
  6
Continuous
 62
     7
370
    15
100
AcDbCircle
 10
7.1463786671
 20
3.842564145
 30
0.0
 40
0.0200000000000005
100
AcDbArc
 50
180.0
 51
267.0
  0
ARC
  5
1B2
330
1F
100
AcDbEntity
  8
0
  6
Continuous
 62
     7
370
    15
100
AcDbCircle
 10
7.0774297101
 20
4.5316774249
 30
0.0
 40
0.1072214657321552
100
AcDbArc
 50
202.118905807
 51
212.552269521
  0
LINE
  5
1B3
330
1F
100
AcDbEntity
  8
0
  6
Continuous
 62
     7
370
    15
100
AcDbLine
 10
6.9780992683
 20
4.4913053298
 30
0.0
 11
7.1232537088
 21
4.5751102817
 31
0.0
  0
ELLIPSE
  5
1B4
330
1F
100
AcDbEntity
  8
0
  6
Continuous
 62
     7
370
    15
100
AcDbEllipse
 10
7.1201286671
 20
4.5502120305
 30
0.0
 11
0.003126601166161258
 21
0.02489861759881862
 31
0.0
210
0.0
220
0.0
230
1.0
 40
0.0090000367
 41
6.263817136987769
 42
6.290006049025519
  0
ELLIPSE
  5
1B5
330
1F
100
AcDbEntity
  8
0
  6
Continuous
 62
     7
370
    15
100
AcDbEllipse
 10
7.1463786671
 20
4.565367475
 30
0.0
 11
0.02311968352067418
 21
-0.009744113047982061
 31
0.0
210
0.0
220
0.0
230
1.0
 40
0.0162151265
 41
3.155498155136459
 42
4.673934604371325
  0
LINE
  5
1B6
330
1F
100
AcDbEntity
  8
0
  6
Continuous
 62
     7
370
    15
100
AcDbLine
 10
7.1263787287
 20
3.8425641522
 30
0.0
 11
7.1263787287
 21
3.903003526
 31
0.0
  0
LINE
  5
1B7
330
1F
100
AcDbEntity
  8
0
  6
Continuous
 62
     7
370
    15
100
AcDbLine
 10
7.1263787287
 20
3.903003526
 30
0.0
 11
7.1453318324
 21
3.903003526
 31
0.0
  0
ELLIPSE
  5
1B8
330
1F
100
AcDbEntity
  8
0
  6
Continuous
 62
     7
370
    15
100
AcDbEllipse
 10
7.1463786671
 20
4.565367475
 30
0.0
 11
0.01999634832243924
 21
-0.0151574521805431
 31
0.0
210
0.0
220
0.0
230
1.0
 40
0.0252133281
 41
3.160702307406182
 42
4.679138756639873
  0
LINE
  5
1B9
330
1F
100
AcDbEntity
  8
0
  6
Continuous
 62
     7
370
    15
100
AcDbLine
 10
7.1263787287
 20
4.5805124807
 30
0.0
 11
7.1263787287
 21
4.6401001123
 31
0.0
  0
ARC
  5
1BA
330
1F
100
AcDbEntity
  8
0
  6
Continuous
 62
     7
370
    15
100
AcDbCircle
 10
7.1063786671
 20
3.903003532
 30
0.0
 40
0.0199999999999991
100
AcDbArc
 50
0.0
 51
15.6368383991
  0
ARC
  5
1BB
330
1F
100
AcDbEntity
  8
0
  6
Continuous
 62
     7
370
    15
100
AcDbCircle
 10
7.228489077
 20
3.5943677646
 30
0.0
 40
0.3304405288200831
100
AcDbArc
 50
104.8408711425
 51
108.1347778551
  0
ARC
  5
1BC
330
1F
100
AcDbEntity
  8
0
  6
Continuous
 62
     7
370
    15
100
AcDbCircle
 10
7.120131691
 20
4.5805133132
 30
0.0
 40
0.0062470378167246
100
AcDbArc
 50
300.0412716829
 51
359.9923641036
  0
LINE
  5
1BD
330
1F
100
AcDbEntity
  8
0
  6
Continuous
 62
     7
370
    15
100
AcDbLine
 10
7.1256383639
 20
3.9083943144
 30
0.0
 11
6.9688394286
 21
4.4685940829
 31
0.0
  0
ARC
  5
1BE
330
1F
100
AcDbEntity
  8
0
  6
Continuous
 62
     7
370
    15
100
AcDbCircle
 10
7.0717166015
 20
4.1544798749
 30
0.0
 40
0.3305320685504828
100
AcDbArc
 50
104.8414115084
 51
108.1344071772
  0
ARC
  5
1BF
330
1F
100
AcDbEntity
  8
0
  6
Continuous
 62
     7
370
    15
100
AcDbCircle
 10
6.988099332
 20
4.4739848583
 30
0.0
 40
0.02
100
AcDbArc
 50
120.0
 51
195.6368383991
  0
ARC
  5
1C0
330
1F
100
AcDbEntity
  8
0
  6
Continuous
 62
     7
370
    15
100
AcDbCircle
 10
7.1201286671
 20
4.5805229196
 30
0.0
 40
0.0062500000000003
100
AcDbArc
 50
300.0
 51
0.0
  0
LINE
  5
1C1
330
1F
100
AcDbEntity
  8
0
  6
Continuous
 62
     8
370
    15
100
AcDbLine
 10
4.6040706133
 20
3.6546576055
 30
0.0
 11
4.6040706133
 21
3.614657609
 31
0.0
  0
LINE
  5
1C2
330
1F
100
AcDbEntity
  8
0
  6
Continuous
 62
     8
370
    15
100
AcDbLine
 10
4.6040706133
 20
3.7396576129
 30
0.0
 11
4.6040706133
 21
3.6996576164
 31
0.0
  0
LWPOLYLINE
  5
1C3
330
1F
100
AcDbEntity
  8
0
  6
Continuous
 62
     8
370
    15
100
AcDbPolyline
 90
       15
 70
   128
 43
0.0
 10
5.4704372076
 20
3.7466146072
 10
5.4685762051
 20
3.7532636931
 10
5.4654084764
 20
3.764581037
 10
5.4622869765
 20
3.7757333829
 10
5.4592571128
 20
3.7865580498
 10
5.4563632369
 20
3.7968972264
 10
5.4536474709
 20
3.8066001116
 10
5.4511493558
 20
3.8155252325
 10
5.4489052644
 20
3.8235424679
 10
5.446948167
 20
3.8305348378
 10
5.4453063406
 20
3.8364004394
 10
5.4440039557
 20
3.8410537376
 10
5.4430597852
 20
3.8444268266
 10
5.4424877918
 20
3.8464705737
 10
5.4422961887
 20
3.8471551471
  0
LINE
  5
1C4
330
1F
100
AcDbEntity
  8
0
  6
Continuous
 62
     8
370
    15
100
AcDbLine
 10
4.9294981873
 20
3.6720726337
 30
0.0
 11
4.9294981873
 21
3.7767426139
 31
0.0
  0
LWPOLYLINE
  5
1C5
330
1F
100
AcDbEntity
  8
0
  6
Continuous
 62
     8
370
    15
100
AcDbPolyline
 90
       15
 70
   128
 43
0.0
 10
5.4948562215
 20
3.6450322621
 10
5.4946646184
 20
3.6457168355
 10
5.494092625
 20
3.6477605825
 10
5.4931484546
 20
3.6511336863
 10
5.4918460697
 20
3.6557869698
 10
5.4902042433
 20
3.6616525714
 10
5.4882471459
 20
3.668644956
 10
5.4860030545
 20
3.6766621767
 10
5.4835049393
 20
3.6855872976
 10
5.4807891734
 20
3.6952901975
 10
5.4778951801
 20
3.705629374
 10
5.4748654338
 20
3.716454041
 10
5.4717439339
 20
3.7276063868
 10
5.4685762051
 20
3.7389237308
 10
5.466714616
 20
3.7455746059
  0
LINE
  5
1C6
330
1F
100
AcDbEntity
  8
0
  6
Continuous
 62
     8
370
    15
100
AcDbLine
 10
4.9294981873
 20
3.5674026682
 30
0.0
 11
4.9294981873
 21
3.6720726337
 31
0.0
  0
LWPOLYLINE
  5
1C7
330
1F
100
AcDbEntity
  8
0
  6
Continuous
 62
     8
370
    15
100
AcDbPolyline
 90
       39
 70
   128
 43
0.0
 10
7.0958991662
 20
4.0010618785
 10
7.095710027
 20
4.0017373
 10
7.0951442522
 20
4.0037589887
 10
7.0942055964
 20
4.0071126886
 10
7.0929006301
 20
4.0117748748
 10
7.0912385053
 20
4.0177128115
 10
7.0892309552
 20
4.0248849633
 10
7.0868922942
 20
4.0332408774
 10
7.0842384795
 20
4.0427220639
 10
7.0812882843
 20
4.0532619368
 10
7.0780625935
 20
4.0647866357
 10
7.0745839351
 20
4.0772152601
 10
7.0708764792
 20
4.0904606324
 10
7.0669665084
 20
4.1044299431
 10
7.0628814783
 20
4.1190250438
 10
7.0586497831
 20
4.1341437385
 10
7.0543012254
 20
4.1496798417
 10
7.0498663113
 20
4.1655244693
 10
7.0453762511
 20
4.1815664493
 10
7.0408622553
 20
4.1976932017
 10
7.0363564727
 20
4.2137917357
 10
7.0318898789
 20
4.229749002
 10
7.0274943884
 20
4.2454531246
 10
7.0232005073
 20
4.2607939874
 10
7.0190385074
 20
4.2756639383
 10
7.0150374869
 20
4.2899587278
 10
7.011225371
 20
4.3035779785
 10
7.0076291459
 20
4.3164262994
 10
7.0042739206
 20
4.3284134623
 10
7.0011833963
 20
4.3394553987
 10
6.9983789274
 20
4.3494747283
 10
6.9958804603
 20
4.3584011105
 10
6.99370536
 20
4.3661719487
 10
6.9918691146
 20
4.3727327423
 10
6.9903843957
 20
4.378037497
 10
6.9892615287
 20
4.3820489013
 10
6.9885084921
 20
4.3847389716
 10
6.9881306831
 20
4.3860887
 10
6.9880835157
 20
4.386257658
  0
LWPOLYLINE
  5
1C8
330
1F
100
AcDbEntity
  8
0
  6
Continuous
 62
     8
370
    15
100
AcDbPolyline
 90
       39
 70
   128
 43
0.0
 10
7.0911498024
 20
4.0016334612
 10
7.0909625405
 20
4.0023027815
 10
7.0904019283
 20
4.0043059317
 10
7.0894717204
 20
4.0076289493
 10
7.088178722
 20
4.0122484266
 10
7.0865318504
 20
4.0181320387
 10
7.0845428387
 20
4.0252384846
 10
7.0822255321
 20
4.0335179569
 10
7.0795958878
 20
4.0429123764
 10
7.0766729136
 20
4.0533558024
 10
7.0734765559
 20
4.0647749612
 10
7.0700298117
 20
4.0770898322
 10
7.0663563821
 20
4.0902140006
 10
7.0624820802
 20
4.1040554194
 10
7.0584343616
 20
4.1185169963
 10
7.0542413861
 20
4.1334972979
 10
7.0499327212
 20
4.1488911948
 10
7.0455384039
 20
4.1645908001
 10
7.04108941
 20
4.1804859391
 10
7.036616715
 20
4.1964650879
 10
7.0321522332
 20
4.2124162529
 10
7.027726471
 20
4.2282274996
 10
7.0233713427
 20
4.2437878905
 10
7.0191166505
 20
4.2589883069
 10
7.0149926661
 20
4.2737221527
 10
7.0110282533
 20
4.2878860584
 10
7.0072511022
 20
4.3013807025
 10
7.0036877301
 20
4.3141113981
 10
7.0003632458
 20
4.3259888556
 10
6.9973011158
 20
4.3369297692
 10
6.9945222253
 20
4.3468573452
 10
6.9920467552
 20
4.3557020643
 10
6.9898916014
 20
4.3634017407
 10
6.9880720171
 20
4.369902519
 10
6.9866009088
 20
4.3751586983
 10
6.985488367
 20
4.3791333777
 10
6.9847421356
 20
4.3817988082
 10
6.9843678466
 20
4.3831362168
 10
6.9843211485
 20
4.3833035908
  0
LWPOLYLINE
  5
1C9
330
1F
100
AcDbEntity
  8
0
  6
Continuous
 62
     8
370
    15
100
AcDbPolyline
 90
       39
 70
   128
 43
0.0
 10
7.0830290215
 20
4.0062025445
 10
7.082842933
 20
4.0068671715
 10
7.0822860754
 20
4.0088562418
 10
7.0813626728
 20
4.012155441
 10
7.0800792956
 20
4.0167410681
 10
7.0784448611
 20
4.0225799766
 10
7.0764715719
 20
4.0296301618
 10
7.0741735078
 20
4.0378407603
 10
7.0715670952
 20
4.0471526954
 10
7.0686711074
 20
4.0574988532
 10
7.0655066639
 20
4.0688046693
 10
7.0620962927
 20
4.0809886565
 10
7.0584648679
 20
4.0939631093
 10
7.0546382028
 20
4.1076344554
 10
7.0506442223
 20
4.1219042532
 10
7.0465113207
 20
4.13666972
 10
7.042269535
 20
4.1518243769
 10
7.0379493716
 20
4.1672590466
 10
7.0335820407
 20
4.1828626157
 10
7.0291987527
 20
4.1985225628
 10
7.0248314218
 20
4.2141261318
 10
7.0205112584
 20
4.2295608602
 10
7.0162694727
 20
4.2447155171
 10
7.0121368058
 20
4.2594809252
 10
7.0081425906
 20
4.2737507231
 10
7.0043161601
 20
4.2874220691
 10
7.0006845008
 20
4.3003965219
 10
6.9972743641
 20
4.3125805092
 10
6.994109686
 20
4.3238863252
 10
6.9912139328
 20
4.334232483
 10
6.9886075203
 20
4.3435444181
 10
6.9863094562
 20
4.3517550753
 10
6.9843359323
 20
4.3588052018
 10
6.9827017325
 20
4.3646441104
 10
6.9814183553
 20
4.3692297374
 10
6.980494718
 20
4.3725289366
 10
6.9799380951
 20
4.3745180657
 10
6.9797520066
 20
4.3751826926
 10
6.9797520066
 20
4.3751826926
  0
LWPOLYLINE
  5
1CA
330
1F
100
AcDbEntity
  8
0
  6
Continuous
 62
     8
370
    15
100
AcDbPolyline
 90
       33
 70
   128
 43
0.0
 10
7.0635319667
 20
4.0554854951
 10
7.0633458782
 20
4.0561500048
 10
7.0627897246
 20
4.0581369632
 10
7.0618689033
 20
4.0614265998
 10
7.0605928007
 20
4.0659862378
 10
7.0589736194
 20
4.0717705284
 10
7.0570280205
 20
4.0787220374
 10
7.0547750119
 20
4.0867716564
 10
7.0522368866
 20
4.095839365
 10
7.0494392229
 20
4.1058350522
 10
7.0464094765
 20
4.1166593378
 10
7.0431779192
 20
4.1282047458
 10
7.0397766998
 20
4.1403564667
 10
7.03623961
 20
4.1529937074
 10
7.0326016147
 20
4.1659909226
 10
7.0288990868
 20
4.1792189298
 10
7.0251688686
 20
4.1925462585
 10
7.0214478022
 20
4.2058404409
 10
7.0177729647
 20
4.2189693612
 10
7.0141809635
 20
4.231802605
 10
7.0107074676
 20
4.244212515
 10
7.0073869727
 20
4.2560757752
 10
7.0042525662
 20
4.2672745845
 10
7.0013352239
 20
4.2776975361
 10
6.9986638094
 20
4.2872410845
 10
6.9962653091
 20
4.2958103669
 10
6.9941634241
 20
4.3033202588
 10
6.9923788047
 20
4.3096960785
 10
6.9909292854
 20
4.3148745253
 10
6.9898294155
 20
4.3188040319
 10
6.989090224
 20
4.3214455854
 10
6.9887185163
 20
4.3227729621
 10
6.9886720529
 20
4.3229392215
  0
LWPOLYLINE
  5
1CB
330
1F
100
AcDbEntity
  8
0
  6
Continuous
 62
     8
370
    15
100
AcDbPolyline
 90
       28
 70
   128
 43
0.0
 10
7.0160251875
 20
4.0822138957
 10
7.0158353444
 20
4.0828919572
 10
7.0152686309
 20
4.0849167552
 10
7.0143330258
 20
4.0882597192
 10
7.0130414353
 20
4.0928740339
 10
7.0114121635
 20
4.0986948733
 10
7.0094682073
 20
4.1056405744
 10
7.0072365531
 20
4.1136135756
 10
7.0047486458
 20
4.1225019423
 10
7.0020394504
 20
4.1321810092
 10
6.9991472172
 20
4.1425147884
 10
6.9961120736
 20
4.1533582578
 10
6.9929769631
 20
4.1645591791
 10
6.989785768
 20
4.1759603861
 10
6.986583309
 20
4.1874017206
 10
6.9834146416
 20
4.1987226725
 10
6.9803241173
 20
4.2097643156
 10
6.9773551489
 20
4.220371537
 10
6.9745495067
 20
4.2303955599
 10
6.9719463794
 20
4.2396955858
 10
6.9695826094
 20
4.2481411416
 10
6.9674910495
 20
4.2556136046
 10
6.9657012676
 20
4.26200808
 10
6.9642381378
 20
4.2672348677
 10
6.9631225453
 20
4.2712205176
 10
6.962369978
 20
4.2739091212
 10
6.9619912304
 20
4.2752628976
 10
6.9619435936
 20
4.2754325596
  0
LWPOLYLINE
  5
1CC
330
1F
100
AcDbEntity
  8
0
  6
Continuous
 62
     8
370
    15
100
AcDbPolyline
 90
       27
 70
   128
 43
0.0
 10
6.9970282017
 20
4.0845004026
 10
6.9968381239
 20
4.0851791681
 10
6.9962711757
 20
4.0872053154
 10
6.9953353359
 20
4.0905480448
 10
6.9940453881
 20
4.0951567275
 10
6.9924208096
 20
4.1009614338
 10
6.9904857706
 20
4.1078742233
 10
6.9882700735
 20
4.1157903185
 10
6.9858072753
 20
4.1245896888
 10
6.9831344528
 20
4.1341389865
 10
6.980292203
 20
4.1442933652
 10
6.977323704
 20
4.1548990027
 10
6.9742740112
 20
4.1657950368
 10
6.9711891188
 20
4.1768163815
 10
6.9681159597
 20
4.1877958387
 10
6.9651009972
 20
4.1985671489
 10
6.9621902254
 20
4.2089668688
 10
6.9594275267
 20
4.2188374214
 10
6.9568546711
 20
4.2280291499
 10
6.9545110822
 20
4.2364027812
 10
6.9524317248
 20
4.2438313034
 10
6.9506485134
 20
4.2502021951
 10
6.9491884343
 20
4.2554187748
 10
6.9480735459
 20
4.2594020195
 10
6.9473207439
 20
4.2620915617
 10
6.9469415269
 20
4.2634465701
 10
6.9468938901
 20
4.2636164081
  0
SPLINE
  5
1CD
330
1F
100
AcDbEntity
  8
0
  6
Continuous
 62
     8
370
    15
100
AcDbSpline
210
0.0
220
0.0
230
1.0
 70
     8
 71
     3
 72
    10
 73
     6
 74
     0
 42
0.00000001
 43
0.00000001
 12
1.0
 22
0.0
 32
0.0
 13
1.0
 23
0.0
 33
0.0
 40
0.0
 40
0.0
 40
0.0
 40
0.0
 40
0.2849274504849009
 40
0.9061069533377215
 40
1.0
 40
1.0
 40
1.0
 40
1.0
 10
6.845465088529492
 20
4.278146741608571
 30
0.0
 10
6.845446766548493
 20
4.278200062852188
 30
0.0
 10
6.845388500227174
 20
4.278369631454724
 30
0.0
 10
6.845759581145514
 20
4.277297174633349
 30
0.0
 10
6.846040862318437
 20
4.276255132381691
 30
0.0
 10
6.846077796118109
 20
4.276118306374562
 30
0.0
  0
SPLINE
  5
1CE
330
1F
100
AcDbEntity
  8
0
  6
Continuous
 62
     8
370
    15
100
AcDbSpline
210
0.0
220
0.0
230
1.0
 70
     8
 71
     3
 72
     9
 73
     5
 74
     0
 42
0.00000001
 43
0.00000001
 12
1.0
 22
0.0
 32
0.0
 13
1.0
 23
0.0
 33
0.0
 40
0.0
 40
0.0
 40
0.0
 40
0.0
 40
0.6376503627844989
 40
1.0
 40
1.0
 40
1.0
 40
1.0
 10
6.79878127582488
 20
4.262880091303551
 30
0.0
 10
6.798557222080215
 20
4.263743090654947
 30
0.0
 10
6.798205848102026
 20
4.265096495909241
 30
0.0
 10
6.798239632262343
 20
4.26497557420489
 30
0.0
 10
6.798251873940576
 20
4.264931758269187
 30
0.0
  0
LWPOLYLINE
  5
1CF
330
1F
100
AcDbEntity
  8
0
  6
Continuous
 62
     8
370
    15
100
AcDbPolyline
 90
        5
 70
   128
 43
0.0
 10
6.8038009725
 20
4.2454937802
 10
6.8035566873
 20
4.2463662607
 10
6.8033820973
 20
4.2469907015
 10
6.8032769679
 20
4.2473658119
 10
6.803242003
 20
4.2474909464
  0
LINE
  5
1D0
330
1F
100
AcDbEntity
  8
0
  6
Continuous
 62
     7
370
     0
100
AcDbLine
 10
5.4422961442
 20
3.832815212
 30
0.0
 11
5.4948562553
 21
3.6450322663
 31
0.0
  0
LINE
  5
1D1
330
1F
100
AcDbEntity
  8
0
  6
Continuous
 62
     7
370
     0
100
AcDbLine
 10
5.4948562553
 20
3.6450322663
 30
0.0
 11
5.5213584649
 21
3.6524501874
 31
0.0
  0
LINE
  5
1D2
330
1F
100
AcDbEntity
  8
0
  6
Continuous
 62
     7
370
     0
100
AcDbLine
 10
5.5213584649
 20
3.6524501874
 30
0.0
 11
5.4687983538
 21
3.8402331332
 31
0.0
  0
LINE
  5
1D3
330
1F
100
AcDbEntity
  8
0
  6
Continuous
 62
     7
370
     0
100
AcDbLine
 10
5.4687983538
 20
3.8402331332
 30
0.0
 11
5.4422961442
 21
3.832815212
 31
0.0
  0
LINE
  5
1D4
330
1F
100
AcDbEntity
  8
0
  6
Continuous
 62
     7
370
     0
100
AcDbLine
 10
5.9590649068
 20
3.9774578658
 30
0.0
 11
5.9868331512
 21
3.9852301479
 31
0.0
  0
LINE
  5
1D5
330
1F
100
AcDbEntity
  8
0
  6
CENTERX2
 62
     7
370
     0
100
AcDbLine
 10
7.2469286671
 20
5.6496576084
 30
0.0
 11
7.2469286671
 21
2.8296576084
 31
0.0
  0
LINE
  5
1D6
330
1F
100
AcDbEntity
  8
0
  6
Continuous
 62
     7
370
     0
100
AcDbLine
 10
7.2469286671
 20
3.4496576084
 30
0.0
 11
7.2469286671
 21
3.1496576084
 31
0.0
  0
LINE
  5
1D7
330
1F
100
AcDbEntity
  8
0
  6
Continuous
 62
     7
370
     0
100
AcDbLine
 10
7.2469286671
 20
3.1496576084
 30
0.0
 11
6.9469286671
 21
3.1496576084
 31
0.0
  0
LINE
  5
1D8
330
1F
100
AcDbEntity
  8
0
  6
Continuous
 62
     7
370
     0
100
AcDbLine
 10
2.1449286671
 20
3.1496576084
 30
0.0
 11
2.1449286671
 21
2.8296576084
 31
0.0
  0
LINE
  5
1D9
330
1F
100
AcDbEntity
  8
0
  6
Continuous
 62
     7
370
     0
100
AcDbLine
 10
2.1449286671
 20
2.8296576084
 30
0.0
 11
7.2469286671
 21
2.8296576084
 31
0.0
  0
LINE
  5
1DA
330
1F
100
AcDbEntity
  8
0
  6
Continuous
 62
     7
370
     0
100
AcDbLine
 10
7.2469286671
 20
3.2344688693
 30
0.0
 11
7.2469286671
 21
2.8296576084
 31
0.0
  0
LINE
  5
1DB
330
1F
100
AcDbEntity
  8
0
  6
Continuous
 62
     7
370
     0
100
AcDbLine
 10
6.9469286671
 20
3.1496576084
 30
0.0
 11
7.2469286671
 21
3.4496576084
 31
0.0
  0
LINE
  5
1DC
330
1F
100
AcDbEntity
  8
0
  6
Continuous
 62
     7
370
     0
100
AcDbLine
 10
7.2469286671
 20
3.4496576084
 30
0.0
 11
7.2469286671
 21
3.2344688693
 31
0.0
  0
LINE
  5
1DD
330
1F
100
AcDbEntity
  8
0
  6
Continuous
 62
     7
370
     0
100
AcDbLine
 10
9.3869286671
 20
3.4496576084
 30
0.0
 11
9.3869286671
 21
2.8296576084
 31
0.0
  0
LINE
  5
1DE
330
1F
100
AcDbEntity
  8
0
  6
Continuous
 62
     7
370
     0
100
AcDbLine
 10
7.0317399281
 20
3.2344688693
 30
0.0
 11
7.2469286671
 21
3.4496576084
 31
0.0
  0
LINE
  5
1DF
330
1F
100
AcDbEntity
  8
0
  6
Continuous
 62
     7
370
     0
100
AcDbLine
 10
9.3869286671
 20
2.8296576084
 30
0.0
 11
10.7869286671
 21
2.8296576084
 31
0.0
  0
LINE
  5
1E0
330
1F
100
AcDbEntity
  8
0
  6
Continuous
 62
     7
370
     0
100
AcDbLine
 10
10.7869286671
 20
2.8296576084
 30
0.0
 11
10.7869286671
 21
3.1496576084
 31
0.0
  0
LINE
  5
1E1
330
1F
100
AcDbEntity
  8
0
  6
Continuous
 62
     7
370
     0
100
AcDbLine
 10
10.7869286671
 20
3.1496576084
 30
0.0
 11
9.6869286671
 21
3.1496576084
 31
0.0
  0
LINE
  5
1E2
330
1F
100
AcDbEntity
  8
0
  6
Continuous
 62
     7
370
     0
100
AcDbLine
 10
9.6869286671
 20
3.1496576084
 30
0.0
 11
9.3869286671
 21
3.4496576084
 31
0.0
  0
LINE
  5
1E3
330
1F
100
AcDbEntity
  8
0
  6
Continuous
 62
     7
370
     0
100
AcDbLine
 10
5.9868331512
 20
3.9852301479
 30
0.0
 11
6.0393932624
 21
3.7974472021
 31
0.0
  0
LINE
  5
1E4
330
1F
100
AcDbEntity
  8
0
  6
Continuous
 62
     7
370
     0
100
AcDbLine
 10
6.0393932624
 20
3.7974472021
 30
0.0
 11
6.011625018
 21
3.7896749201
 31
0.0
  0
LINE
  5
1E5
330
1F
100
AcDbEntity
  8
0
  6
Continuous
 62
     7
370
     0
100
AcDbLine
 10
6.011625018
 20
3.7896749201
 30
0.0
 11
5.9590649068
 21
3.9774578658
 31
0.0
  0
LINE
  5
1E6
330
1F
100
AcDbEntity
  8
0
  6
Continuous
 62
     7
370
     0
100
AcDbLine
 10
7.2469286671
 20
5.6496576084
 30
0.0
 11
9.3869286671
 21
5.6496576084
 31
0.0
  0
LINE
  5
1E7
330
1F
100
AcDbEntity
  8
0
  6
Continuous
 62
     7
370
     0
100
AcDbLine
 10
7.2469286671
 20
5.6496576084
 30
0.0
 11
7.2469286671
 21
2.8296576084
 31
0.0
  0
LINE
  5
1E8
330
1F
100
AcDbEntity
  8
0
  6
Continuous
 62
     7
370
     0
100
AcDbLine
 10
9.3869286671
 20
5.6496576084
 30
0.0
 11
9.3869286671
 21
2.8296576084
 31
0.0
  0
HATCH
  5
1E9
330
1F
100
AcDbEntity
  8
0
  6
Continuous
 62
     7
370
     0
100
AcDbHatch
 10
0.0
 20
0.0
 30
0.0
210
0.0
220
0.0
230
1.0
  2
ANSI31
 70
     0
 71
     0
 91
        1
 92
        0
 93
        5
 72
     1
 10
7.566928667148661
 20
2.829657608385735
 11
7.566928667148661
 21
4.054550751207999
 72
     1
 10
7.566928667148661
 20
4.054550751207999
 11
7.24692866714866
 21
4.054550751207999
 72
     1
 10
7.24692866714866
 20
4.054550751207999
 11
7.24692866714866
 21
3.449657608385734
 72
     1
 10
7.24692866714866
 20
3.449657608385734
 11
7.24692866714866
 21
2.829657608385735
 72
     1
 10
7.24692866714866
 20
2.829657608385735
 11
7.566928667148661
 21
2.829657608385735
 97
        0
 75
     0
 76
     1
 52
0.0
 41
1.0
 77
     0
 78
     1
 53
45.0
 43
0.0
 44
0.0
 45
-0.0883883476483184
 46
0.0883883476483184
 79
     0
 98
        1
 10
0.0
 20
0.0
  0
HATCH
  5
1EA
330
1F
100
AcDbEntity
  8
0
  6
Continuous
 62
     7
370
     0
100
AcDbHatch
 10
0.0
 20
0.0
 30
0.0
210
0.0
220
0.0
230
1.0
  2
ANSI31
 70
     0
 71
     0
 91
        1
 92
        0
 93
        9
 72
     1
 10
9.06692866714866
 20
2.829657608385735
 11
9.386928667148661
 21
2.829657608385735
 72
     1
 10
9.386928667148661
 20
2.829657608385735
 11
9.386928667148661
 21
3.149657608385736
 72
     1
 10
9.386928667148661
 20
3.149657608385736
 11
9.386928667148661
 21
5.649657608385737
 72
     1
 10
9.386928667148661
 20
5.649657608385737
 11
7.24692866714866
 21
5.649657608385737
 72
     1
 10
7.24692866714866
 20
5.649657608385737
 11
7.24692866714866
 21
4.344764465563473
 72
     1
 10
7.24692866714866
 20
4.344764465563473
 11
7.566928667148661
 21
4.344764465563473
 72
     1
 10
7.566928667148661
 20
4.344764465563473
 11
7.566928667148661
 21
5.329657608385736
 72
     1
 10
7.566928667148661
 20
5.329657608385736
 11
9.066928667148662
 21
5.329657608385736
 72
     1
 10
9.066928667148662
 20
5.329657608385736
 11
9.06692866714866
 21
2.829657608385735
 97
        0
 75
     0
 76
     1
 52
0.0
 41
1.0
 77
     0
 78
     1
 53
45.0
 43
0.0
 44
0.0
 45
-0.0883883476483184
 46
0.0883883476483184
 79
     0
 98
        1
 10
0.0
 20
0.0
  0
HATCH
  5
1EB
330
1F
100
AcDbEntity
  8
0
  6
Continuous
 62
     7
370
     0
100
AcDbHatch
 10
0.0
 20
0.0
 30
0.0
210
0.0
220
0.0
230
1.0
  2
ANSI31
 70
     0
 71
     0
 91
        1
 92
        0
 93
        8
 72
     1
 10
8.039427315787437
 20
2.597730125136515
 11
8.039427315787437
 21
3.897730125136515
 72
     2
 10
7.64692866714866
 20
3.897730125136515
 40
0.3924986486387776
 50
0.0
 51
90.0
 73
     1
 72
     1
 10
7.64692866714866
 20
4.290228773775293
 11
7.24692866714866
 21
4.290228773775293
 72
     1
 10
7.24692866714866
 20
4.290228773775293
 11
7.24692866714866
 21
4.105231476497737
 72
     1
 10
7.24692866714866
 20
4.105231476497737
 11
7.64692866714866
 21
4.105231476497738
 72
     2
 10
7.64692866714866
 20
3.897730125136515
 40
0.2075013513612226
 50
270.0000000000008
 51
360.0000000000008
 73
     0
 72
     1
 10
7.854430018509883
 20
3.897730125136515
 11
7.854430018509883
 21
2.597730125136515
 72
     1
 10
7.854430018509883
 20
2.597730125136515
 11
8.039427315787437
 21
2.597730125136515
 97
        0
 75
     0
 76
     1
 52
0.0
 41
1.0
 77
     0
 78
     1
 53
45.0
 43
0.0
 44
0.0
 45
-0.0883883476483184
 46
0.0883883476483184
 79
     0
 98
        1
 10
0.0
 20
0.0
  0
HATCH
  5
1EC
330
1F
100
AcDbEntity
  8
0
  6
Continuous
 62
     7
100
AcDbHatch
 10
0.0
 20
0.0
 30
0.0
210
0.0
220
0.0
230
1.0
  2
ANSI31
 70
     0
 71
     0
 91
        1
 92
        0
 93
        4
 72
     1
 10
4.92637866714866
 20
3.149657608385736
 11
4.92637866714866
 21
3.449657608385736
 72
     1
 10
4.92637866714866
 20
3.449657608385736
 11
2.526378667148661
 21
3.449657608385736
 72
     1
 10
2.526378667148661
 20
3.449657608385736
 11
2.526378667148661
 21
3.149657608385736
 72
     1
 10
2.526378667148661
 20
3.149657608385736
 11
4.92637866714866
 21
3.149657608385736
 97
        0
 75
     0
 76
     1
 52
0.0
 41
0.6666666667
 77
     0
 78
     1
 53
45.0
 43
0.0
 44
0.0
 45
-0.058925565098879
 46
0.058925565098879
 79
     0
 98
        1
 10
0.0
 20
0.0
  0
HATCH
  5
1ED
330
1F
100
AcDbEntity
  8
0
  6
Continuous
 62
     7
100
AcDbHatch
 10
0.0
 20
0.0
 30
0.0
210
0.0
220
0.0
230
1.0
  2
DOTS
 70
     0
 71
     0
 91
        1
 92
        0
 93
        4
 72
     1
 10
4.476378667148661
 20
5.199657608385737
 11
2.97637866714866
 21
5.199657608385737
 72
     1
 10
2.97637866714866
 20
5.199657608385737
 11
2.97637866714866
 21
4.199657608385736
 72
     1
 10
2.97637866714866
 20
4.199657608385736
 11
4.476378667148661
 21
4.199657608385736
 72
     1
 10
4.476378667148661
 20
4.199657608385736
 11
4.476378667148661
 21
5.199657608385737
 97
        0
 75
     0
 76
     1
 52
0.0
 41
1.0
 77
     0
 78
     1
 53
0.0
 43
0.0
 44
0.0
 45
0.03125
 46
0.0625
 79
     2
 49
0.0
 49
-0.0625
 98
        1
 10
0.0
 20
0.0
  0
HATCH
  5
1EE
330
1F
100
AcDbEntity
  8
0
  6
Continuous
 62
     7
100
AcDbHatch
 10
0.0
 20
0.0
 30
0.0
210
0.0
220
0.0
230
1.0
  2
ANSI31
 70
     0
 71
     0
 91
        1
 92
        0
 93
        4
 72
     1
 10
7.246928667148661
 20
3.149657608385735
 11
7.246928667148661
 21
2.829657608385735
 72
     1
 10
7.246928667148661
 20
2.829657608385735
 11
2.144928667148659
 21
2.829657608385735
 72
     1
 10
2.14492866714866
 20
2.829657608385735
 11
2.14492866714866
 21
3.149657608385735
 72
     1
 10
2.14492866714866
 20
3.149657608385735
 11
7.246928667148662
 21
3.149657608385735
 97
        0
 75
     0
 76
     1
 52
0.0
 41
0.4
 77
     0
 78
     1
 53
45.0
 43
0.0
 44
0.0
 45
-0.0353553390593274
 46
0.0353553390593274
 79
     0
 98
        1
 10
0.0
 20
0.0
  0
HATCH
  5
1EF
330
1F
100
AcDbEntity
  8
0
  6
Continuous
 62
     7
100
AcDbHatch
 10
0.0
 20
0.0
 30
0.0
210
0.0
220
0.0
230
1.0
  2
ANSI31
 70
     0
 71
     0
 91
        1
 92
        0
 93
        3
 72
     1
 10
7.246928667148661
 20
3.449657608385734
 11
7.246928667148661
 21
3.149657608385736
 72
     1
 10
7.246928667148661
 20
3.149657608385736
 11
6.946928667148659
 21
3.149657608385735
 72
     1
 10
6.946928667148659
 20
3.149657608385735
 11
7.246928667148661
 21
3.449657608385734
 97
        0
 75
     0
 76
     1
 52
0.0
 41
0.4
 77
     0
 78
     1
 53
45.0
 43
0.0
 44
0.0
 45
-0.0353553390593274
 46
0.0353553390593274
 79
     0
 98
        1
 10
0.0
 20
0.0
  0
HATCH
  5
1F0
330
1F
100
AcDbEntity
  8
0
  6
Continuous
 62
     7
100
AcDbHatch
 10
0.0
 20
0.0
 30
0.0
210
0.0
220
0.0
230
1.0
  2
ANSI31
 70
     0
 71
     0
 91
        1
 92
        0
 93
        5
 72
     1
 10
9.686928667148663
 20
3.149657608385735
 11
9.386928667148661
 21
3.449657608385734
 72
     1
 10
9.386928667148661
 20
3.449657608385734
 11
9.386928667148661
 21
2.829657608385735
 72
     1
 10
9.386928667148661
 20
2.829657608385735
 11
10.78692866714866
 21
2.829657608385735
 72
     1
 10
10.78692866714866
 20
2.829657608385735
 11
10.78692866714866
 21
3.149657608385735
 72
     1
 10
10.78692866714866
 20
3.149657608385735
 11
9.686928667148663
 21
3.149657608385735
 97
        0
 75
     0
 76
     1
 52
0.0
 41
0.4
 77
     0
 78
     1
 53
45.0
 43
0.0
 44
0.0
 45
-0.0353553390593274
 46
0.0353553390593274
 79
     0
 98
        1
 10
0.0
 20
0.0
  0
HATCH
  5
1F1
330
1F
100
AcDbEntity
  8
0
  6
Continuous
 62
     7
100
AcDbHatch
 10
0.0
 20
0.0
 30
0.0
210
0.0
220
0.0
230
1.0
  2
SOLID
 70
     1
 71
     0
 91
        1
 92
        0
 93
        4
 72
     1
 10
5.468798353765096
 20
3.840233133165496
 11
5.442296144172477
 21
3.832815212027701
 72
     1
 10
5.442296144172477
 20
3.832815212027701
 11
5.494856255347476
 21
3.645032266281097
 72
     1
 10
5.494856255347476
 20
3.645032266281097
 11
5.521358464940096
 21
3.652450187418893
 72
     1
 10
5.521358464940096
 20
3.652450187418893
 11
5.468798353765096
 21
3.840233133165496
 97
        0
 75
     0
 76
     1
 98
        1
 10
0.0
 20
0.0
  0
HATCH
  5
1F2
330
1F
100
AcDbEntity
  8
0
  6
Continuous
 62
     7
100
AcDbHatch
 10
0.0
 20
0.0
 30
0.0
210
0.0
220
0.0
230
1.0
  2
SOLID
 70
     1
 71
     0
 91
        1
 92
        0
 93
        4
 72
     1
 10
6.011625017958763
 20
3.789674920099451
 11
5.959064906783762
 21
3.977457865846054
 72
     1
 10
5.959064906783762
 20
3.977457865846054
 11
5.986833151222461
 21
3.985230147876405
 72
     1
 10
5.986833151222461
 20
3.985230147876405
 11
6.039393262397462
 21
3.797447202129802
 72
     1
 10
6.039393262397462
 20
3.797447202129802
 11
6.011625017958763
 21
3.789674920099451
 97
        0
 75
     0
 76
     1
 98
        1
 10
0.0
 20
0.0
  0
INSERT
  5
1FC
102
{ACAD_REACTORS
330
1FE
102
}
330
1F
100
AcDbEntity
  8
0
  6
Continuous
 62
     7
370
     0
100
AcDbBlockReference
  2
SW_NOTE_1
 10
3.3751881365
 20
6.8897637795
 30
0.0
  0
LEADER
  5
1FE
330
1F
100
AcDbEntity
  8
0
  6
Continuous
 62
     7
370
     0
100
AcDbLeader
  3
SLDDIMSTYLE0
 73
     2
 76
     3
 10
6.978099332
 20
4.4913053663
 30
0.0
 10
3.6251881365
 20
6.8897637795
 30
0.0
 10
3.3751881365
 20
6.8897637795
 30
0.0
340
1FC
  0
INSERT
  5
204
102
{ACAD_REACTORS
330
205
102
}
330
1F
100
AcDbEntity
  8
0
  6
Continuous
 62
     7
370
     0
100
AcDbBlockReference
  2
SW_NOTE_2
 10
1.414794481
 20
4.9212598425
 30
0.0
  0
LEADER
  5
205
330
1F
100
AcDbEntity
  8
0
  6
Continuous
 62
     7
370
     0
100
AcDbLeader
  3
SLDDIMSTYLE0
 73
     2
 76
     3
 10
2.7263786671
 20
5.2996576084
 30
0.0
 10
1.664794481
 20
4.9212598425
 30
0.0
 10
1.414794481
 20
4.9212598425
 30
0.0
340
204
  0
MTEXT
  5
206
330
1F
100
AcDbEntity
  8
0
  6
Continuous
 62
     7
370
     0
100
AcDbMText
 10
0.342557963
 20
4.4775237388
 30
0.0
 40
0.0833333333
 41
0.0
 71
     1
 72
     1
  1
CONDENSER PAD
  7
SLDTEXTSTYLE0
 73
     1
 44
1.0
  0
LEADER
  5
207
330
1F
100
AcDbEntity
  8
0
  6
Continuous
 62
     7
370
     0
100
AcDbLeader
  3
SLDDIMSTYLE0
 76
     3
 10
2.6066647881
 20
3.4496576084
 30
0.0
 10
1.6151303908
 20
4.3659250163
 30
0.0
 10
1.3651303908
 20
4.3659250163
 30
0.0
  0
INSERT
  5
212
330
1F
100
AcDbEntity
  8
0
  6
Continuous
 62
     7
370
     0
100
AcDbBlockReference
  2
SW_NOTE_3
 10
10.4971826916
 20
3.9678515315
 30
0.0
  0
LEADER
  5
213
330
1F
100
AcDbEntity
  8
0
  6
Continuous
 62
     7
370
     0
100
AcDbLeader
  3
SLDDIMSTYLE0
 76
     2
 10
10.6582983424
 20
3.1496576084
 30
0.0
 10
10.4971826916
 20
3.9678515315
 30
0.0
  0
INSERT
  5
21A
102
{ACAD_REACTORS
330
21B
102
}
330
1F
100
AcDbEntity
  8
0
  6
Continuous
 62
     7
370
     0
100
AcDbBlockReference
  2
SW_NOTE_4
 10
4.0003593313
 20
5.87390739
 30
0.0
  0
LEADER
  5
21B
330
1F
100
AcDbEntity
  8
0
  6
Continuous
 62
     7
370
     0
100
AcDbLeader
  3
SLDDIMSTYLE0
 73
     2
 76
     3
 10
6.2337025229
 20
4.0437079619
 30
0.0
 10
4.2503593313
 20
5.87390739
 30
0.0
 10
4.0003593313
 20
5.87390739
 30
0.0
340
21A
  0
INSERT
  5
221
102
{ACAD_REACTORS
330
222
102
}
330
1F
100
AcDbEntity
  8
0
  6
Continuous
 62
     7
370
     0
100
AcDbBlockReference
  2
SW_NOTE_5
 10
8.5722025572
 20
7.0116665463
 30
0.0
  0
LEADER
  5
222
330
1F
100
AcDbEntity
  8
0
  6
Continuous
 62
     7
370
     0
100
AcDbLeader
  3
SLDDIMSTYLE0
 73
     2
 76
     3
 10
7.4972673996
 20
5.6496576084
 30
0.0
 10
8.3222025572
 20
7.0116665463
 30
0.0
 10
8.5722025572
 20
7.0116665463
 30
0.0
340
221
  0
INSERT
  5
229
102
{ACAD_REACTORS
330
22A
102
}
330
1F
100
AcDbEntity
  8
0
  6
Continuous
 62
     7
370
     0
100
AcDbBlockReference
  2
SW_NOTE_6
 10
8.0258975656
 20
2.2890630644
 30
0.0
  0
LEADER
  5
22A
330
1F
100
AcDbEntity
  8
0
  6
Continuous
 62
     7
370
     0
100
AcDbLeader
  3
SLDDIMSTYLE0
 73
     2
 76
     3
 10
6.8812206629
 20
4.025284941
 30
0.0
 10
7.7758975656
 20
2.2890630644
 30
0.0
 10
8.0258975656
 20
2.2890630644
 30
0.0
340
229
  0
INSERT
  5
231
102
{ACAD_REACTORS
330
232
102
}
330
1F
100
AcDbEntity
  8
0
  6
Continuous
 62
     7
370
     0
100
AcDbBlockReference
  2
SW_NOTE_7
 10
5.4511305353
 20
2.0542873655
 30
0.0
  0
LEADER
  5
232
330
1F
100
AcDbEntity
  8
0
  6
Continuous
 62
     7
370
     0
100
AcDbLeader
  3
SLDDIMSTYLE0
 73
     2
 76
     3
 10
6.0262658518
 20
3.7937728633
 30
0.0
 10
5.7011305353
 20
2.0542873655
 30
0.0
 10
5.4511305353
 20
2.0542873655
 30
0.0
340
231
  0
INSERT
  5
239
102
{ACAD_REACTORS
330
23A
102
}
330
1F
100
AcDbEntity
  8
0
  6
Continuous
 62
     7
370
     0
100
AcDbBlockReference
  2
SW_NOTE_8
 10
9.2494401503
 20
6.2125261865
 30
0.0
  0
LEADER
  5
23A
330
1F
100
AcDbEntity
  8
0
  6
Continuous
 62
     7
370
     0
100
AcDbLeader
  3
SLDDIMSTYLE0
 73
     2
 76
     3
 10
7.2469286671
 20
4.5388445503
 30
0.0
 10
8.9994401503
 20
6.2125261865
 30
0.0
 10
9.2494401503
 20
6.2125261865
 30
0.0
340
239
  0
INSERT
  5
241
330
1F
100
AcDbEntity
  8
0
  6
Continuous
 62
     7
370
     0
100
AcDbBlockReference
  2
SW_NOTE_9
 10
6.5031062631
 20
6.2396156902
 30
0.0
  0
LEADER
  5
242
330
1F
100
AcDbEntity
  8
0
  6
Continuous
 62
     7
370
     0
100
AcDbLeader
  3
SLDDIMSTYLE0
 76
     2
 10
7.1103786671
 20
4.6253443546
 30
0.0
 10
6.5031062631
 20
6.2396156902
 30
0.0
  0
INSERT
  5
249
102
{ACAD_REACTORS
330
24A
102
}
330
1F
100
AcDbEntity
  8
0
  6
Continuous
 62
     7
370
     0
100
AcDbBlockReference
  2
SW_NOTE_10
 10
9.9086180741
 20
5.0657371957
 30
0.0
  0
LEADER
  5
24A
330
1F
100
AcDbEntity
  8
0
  6
Continuous
 62
     7
370
     0
100
AcDbLeader
  3
SLDDIMSTYLE0
 73
     2
 76
     3
 10
7.938663491
 20
4.1603057938
 30
0.0
 10
9.6586180741
 20
5.0657371957
 30
0.0
 10
9.9086180741
 20
5.0657371957
 30
0.0
340
249
  0
ENDSEC
  0
SECTION
  2
OBJECTS
  0
DICTIONARY
  5
C
330
0
100
AcDbDictionary
281
     1
  3
ACAD_GROUP
350
D
  3
ACAD_LAYOUT
350
1A
  3
ACAD_MLINESTYLE
350
17
  3
ACAD_PLOTSETTINGS
350
19
  3
ACAD_PLOTSTYLENAME
350
E
  0
DICTIONARY
  5
D
102
{ACAD_REACTORS
330
C
102
}
330
C
100
AcDbDictionary
281
     1
  0
DICTIONARY
  5
1A
102
{ACAD_REACTORS
330
C
102
}
330
C
100
AcDbDictionary
281
     1
  3
Layout1
350
1E
  3
Layout2
350
26
  3
Model
350
22
  0
DICTIONARY
  5
17
102
{ACAD_REACTORS
330
C
102
}
330
C
100
AcDbDictionary
281
     1
  3
Standard
350
18
  0
DICTIONARY
  5
19
102
{ACAD_REACTORS
330
C
102
}
330
C
100
AcDbDictionary
281
     1
  0
ACDBDICTIONARYWDFLT
  5
E
102
{ACAD_REACTORS
330
C
102
}
330
C
100
AcDbDictionary
281
     1
  3
Normal
350
F
100
AcDbDictionaryWithDefault
340
F
  0
LAYOUT
  5
1E
102
{ACAD_REACTORS
330
1A
102
}
330
1A
100
AcDbPlotSettings
  1

  2
none_device
  4

  6

 40
0.0
 41
0.0
 42
0.0
 43
0.0
 44
0.0
 45
0.0
 46
0.0
 47
0.0
 48
0.0
 49
0.0
140
0.0
141
0.0
142
1.0
143
1.0
 70
   688
 72
     0
 73
     0
 74
     5
  7

 75
    16
147
1.0
148
0.0
149
0.0
100
AcDbLayout
  1
Layout1
 70
     1
 71
     1
 10
0.0
 20
0.0
 11
12.0
 21
9.0
 12
0.0
 22
0.0
 32
0.0
 14
1.0000000000E+20
 24
1.0000000000E+20
 34
1.0000000000E+20
 15
-1.0000000000E+20
 25
-1.0000000000E+20
 35
-1.0000000000E+20
146
0.0
 13
0.0
 23
0.0
 33
0.0
 16
1.0
 26
0.0
 36
0.0
 17
0.0
 27
1.0
 37
0.0
 76
     0
330
1B
  0
LAYOUT
  5
26
102
{ACAD_REACTORS
330
1A
102
}
330
1A
100
AcDbPlotSettings
  1

  2
none_device
  4

  6

 40
0.0
 41
0.0
 42
0.0
 43
0.0
 44
0.0
 45
0.0
 46
0.0
 47
0.0
 48
0.0
 49
0.0
140
0.0
141
0.0
142
1.0
143
1.0
 70
   688
 72
     0
 73
     0
 74
     5
  7

 75
    16
147
1.0
148
0.0
149
0.0
100
AcDbLayout
  1
Layout2
 70
     1
 71
     2
 10
0.0
 20
0.0
 11
0.0
 21
0.0
 12
0.0
 22
0.0
 32
0.0
 14
0.0
 24
0.0
 34
0.0
 15
0.0
 25
0.0
 35
0.0
146
0.0
 13
0.0
 23
0.0
 33
0.0
 16
1.0
 26
0.0
 36
0.0
 17
0.0
 27
1.0
 37
0.0
 76
     0
330
23
  0
LAYOUT
  5
22
102
{ACAD_REACTORS
330
1A
102
}
330
1A
100
AcDbPlotSettings
  1

  2
none_device
  4

  6

 40
0.0
 41
0.0
 42
0.0
 43
0.0
 44
0.0
 45
0.0
 46
0.0
 47
0.0
 48
0.0
 49
0.0
140
0.0
141
0.0
142
1.0
143
1.0
 70
  1712
 72
     0
 73
     0
 74
     0
  7

 75
     0
147
1.0
148
0.0
149
0.0
100
AcDbLayout
  1
Model
 70
     1
 71
     0
 10
0.0
 20
0.0
 11
11.0
 21
8.5
 12
0.0
 22
0.0
 32
0.0
 14
0.0
 24
0.0
 34
0.0
 15
11.0
 25
8.5
 35
0.0
146
0.0
 13
0.0
 23
0.0
 33
0.0
 16
1.0
 26
0.0
 36
0.0
 17
0.0
 27
1.0
 37
0.0
 76
     0
330
1F
331
29
  0
MLINESTYLE
  5
18
102
{ACAD_REACTORS
330
17
102
}
330
17
100
AcDbMlineStyle
  2
Standard
 70
     0
  3

 62
   256
 51
90.0
 52
90.0
 71
     2
 49
0.5
 62
   256
  6
BYLAYER
 49
-0.5
 62
   256
  6
BYLAYER
  0
ACDBPLACEHOLDER
  5
F
102
{ACAD_REACTORS
330
E
102
}
330
E
  0
ENDSEC
  0
EOF
